Song name
# A B C D E F G H I J K L M N O P Q R S T U V W X Y Z

Pain In The Ass - Sparewheel tab

pain in the ass,sparewheel.
Tabbed by masterreen98@aol.com.
  
Pain in the Ass
Wondering                                 

tune your guitar down 1/2 step

Vers:
----------
                
        Eb|-----------------------------------------------------------------------|
        Hb|-----------------------------------------------------------------------|
        Gb|-----------------------------------------------------------------------|
        Db|------------5-5-2-2-2-2-2-2-2-2-2-2-4-4-4-4-5-5-5-5--------------------|
        Ab|--5-5-5-5-5-3-3-0-0-0-0-0-0-0-0-0-0-2-2-2-2-3-3-3-3--------------------|
        Eb|--3-3-3-3-3------------------------------------------------------------|
        manchmal ist alles palm muted


Chorus:
---------

        Eb|--------------------------------------------------------------------|
        Hb|--------------------------------------------------------------------|
        Gb|--------------------------------------------------------------------|
        Db|--------------------4-4-4-4-4-4-4-4---------------------------------|
        Ab|--7-7--5-5--2-2-2-2-2-2-2-2-2-2-2-2---------------------------------|
        Eb|--5-5--3-3--0-0-0-0-------------------------------------------------|


Sparewheel


Sparewheel, you will save my life
you will bring me, to another place
It's all (?), the good times we had
Drinking (?), till I met you
Sparewheel, come and save my life

Sparewheel, please don't get me wrong
You know what I need, you're my number one
But still you are too far a way
And still with you I want to stay
Sparewheel, come and save my life
yeah

Down, down, down
Just like me, I'm going all the way down
Down, down, down
I'm going all the way down
Down, down, down
Just like me, I'm going all the way down
Sparewheel
Save my life, baby

Sparewheel, you bite me like a snake
I'm under pressure and I play with the high stake
Cos you are like a (?) snakes
So I hope (?) want to prey
Sparewheel, people play with me

Down, down, down
Just like me, I'm going all the way down
Down, down, down
I'm going all the way down
Down, down, down
Just like me, I'm going all the way down
Sparewheel
Come and save my life

I'm going all the way down

Down, down, down
Just like me, I'm going all the way down
Down, down, down
I'm going all the way down
Down, down, down
Just like me, I'm going all the way down
Sparewheel
Come and save my life 

(Refrain) 

I try to fill hard times with green
I try to throw the blinding red away
They say the only way to make theme pay is to lie
I rather die
250000 ways to die so it's my choice
What you see is what you get
So am I better off dead ? 

(Refrain)
 
:: Ultimate Guitar Archive :: 
http://www.ultimate-guitar.com 

Tap to rate this tab
# A B C D E F G H I J K L M N O P Q R S T U V W X Y Z