Song name
# A B C D E F G H I J K L M N O P Q R S T U V W X Y Z

Pain Of Salvation - Martius Nauticus Ii tab

Help us improve GuitareTab! Take a short survey!
         PAIN   OF  SALVATION
             "BE"
        Martius  Nauticus II

E -----------------------------|
B -----------------------------|
G -------2---0-2-3--0-0--------|
D --0--------------------------|
A -----------------------------|
E -----------------------------|


E -----------------------------|
B -----------------------------|
G ----0-2--------------0-------|
D --3-----3-3----0/2-3----3----|
A -----------------------------|
E -----------------------------|

    Fmin            Cmajor
E -----------1------------------|
B ----1--------1----------------|
G ------2----------------0------|
D -3------3----------------2----|
A -------------------3--------3-|
E ------------------------------|

         Gmajor
E ----------------3------------|
B -1-------3---------3---------|
G ---0-------3-----------------|
D ------5------5---------------|
A -----------------------------|
E -----------------------------|

      Dminor
E --------------1----------------|
B ----3------------2-------------|
G --------2----------------------|
D -0---------0-------------------|
A -------------------------------|
E -------------------------------|
Related for Martius Nauticus Ii tab