Song name
# A B C D E F G H I J K L M N O P Q R S T U V W X Y Z

Pain Of Salvation - Nauticus tab

E-----------------------------------------------------------------------------|
H-----------------------------------------------------------------------------|
G------------------------------------------7-5~-------5--5---5----------------|
D------------------------------------------------5h7-----5h7-5---3-5-3-0--5~--|
A--3h5~---3h5p3p0---0--------0--------3h5---------------------------------5~--|
D-----------------5---3--3h5---5-3-0------------------------------------------|


(here in "5(G)-5(D)-8p5(A)" sequence you don't need to do three separated picks with 
your right hand, just play it as one movement, bottom-up).

E--------------------|
H--------------------|
G----5---------------|
D-----5-----5--------|
A------8p5----5------|
D-----------------0--|
Tap to rate this tab
# A B C D E F G H I J K L M N O P Q R S T U V W X Y Z