Song name
# A B C D E F G H I J K L M N O P Q R S T U V W X Y Z

Pain Of Salvation - Chainsling tab

Title: Chainsling
Band: Pain of Salvation
Album: 12.05
Transcribed by Silvia Adorno

Intro
Repeat 3x
|---0-1-3-5-5--5-6-3-3--3-3-5-1-1--1-1-1-3-0-1---|
|-3--------------------------------------------3-|
|------------------------------------------------|
|------------------------------------------------|
|------------------------------------------------|
|------------------------------------------------|

---0-1-3-5-5--5-6-3-3--3-3-5-1-1--1-1-1-3-0-1-0-------|
-3----------------------------------------------3-2-3-|
------------------------------------------------------|
------------------------------------------------------|
------------------------------------------------------|
------------------------------------------------------|

Verse
Same as intro
Repeat 4x
  "Please let me..."

Prechorus
"There is nothing..."
|---5-10-9-5-3-3-2--------|
|-5-----------------3-5-5-|
|-------------------------|
|-------------------------|
|-------------------------|
|-------------------------|
Repeat 3x

"I'm so so sorry..."
|---5-10-9-5-3-3-2-----1---|
|-5----------------3-5---3-|
|--------------------------|
|--------------------------|
|--------------------------|
|--------------------------|
I'm not sure about this part...

Then, bridge
|---0-1-0-----0-1-3-5----6-5-3-1-----|
|-3---------3------------------------|
|------------------------------------|
|------------------------------------|
|------------------------------------|
|------------------------------------|

|-----0-1-0-----0-1-3-5--6-5--6-5--6-5-3-1-|
|-3---------3------------------------------|
|------------------------------------------|
|------------------------------------------|
|------------------------------------------|
|------------------------------------------|
Repeat this section 2x

Chorus
"Two young souls..."
|-1---0---------------|
|---3---3-2-3-2---2---|
|---------------2---2-|
|---------------------|
|---------------------|
|---------------------|

"Love once born..."
|-1---0-----------0-1-|
|---3---3-2-3-2-3-----|
|---------------------|
|---------------------|
|---------------------|
|---------------------|

"Bidding to dance..."
|-1---0---------------|
|---3---3-2-3-2---2---|
|---------------2---2-|
|---------------------|
|---------------------|
|---------------------|

"Walking..."
|-1---0-----------0-1-3-5|
|---3---3-2-3-2-3--------|
|------------------------|
|------------------------|
|------------------------|
|------------------------|

Intro again 2x "who will be there now?..."
Prechorus "there is nothing..."
Bridge
Chorus
Intro again 1x
verse again "please let me..."

That's all!
If you find mistakes, please e-mail me. Comments and suggestions are welcolmed at silvia.adorno@hotmail.it
Tap to rate this tab
# A B C D E F G H I J K L M N O P Q R S T U V W X Y Z