Guitaretab - guitar tabs
Song name
# A B C D E F G H I J K L M N O P Q R S T U V W X Y Z
Home / P / Pain / Excalibur tab

Pain - Excalibur tab

-------------------------------------------------------------------------------
			     Excalibur - Pain
-------------------------------------------------------------------------------
Tabbed by: Cadet PD
Email: Ska _Boss66@hotmail.com

Tuning: EADGBe

   G#                                        Fm

e|------------------------------------------------------------|
B|---------------1111------------------------1111-------------|
G|---------1-1---------1--(x2)--------1-1----------1--(x2)----|
D|---1-1---------------------------3-3------------------------|
A|------------------------------------------------------------|
E|------------------------------------------------------------|

For all the verses
[ Tab from: http://www.guitaretab.com/p/pain/103883.html ]
For the chorus and outro, just strum the chords, listen to it for strumming pattern and 
many times.

 G#                  Fm

e|---------------------------|
B|---------------------------|
G|----5--------------1-------|
D|----6--------------3-------|
A|----6--------------3-------|
E|----4--------------1-------|

Also, Heres the Horn Part tabbed for guitar:

e|--------------------------------------------------------|
B|--------------------------------------------------------|
G|------------3--5-3---------------------1----------------|
D|----------6----------6--5--------3--5----5--3-----------|
A|-------6-----------------------3------------------3-----|
E|-----4-----------------------1--------------------------|


| /  slide up
| \  slide down
| h  hammer-on
| p  pull-off
| ~  vibrato
| +  harmonic
| x  Mute note
===============================================================================
Related for Excalibur tab