Guitaretab - guitar tabs
Song name
# A B C D E F G H I J K L M N O P Q R S T U V W X Y Z

Pain - End Of The Line tab

Pain - End of The Line
From the 1999 album "Rebirth"

Standard A-Tuning: ADGCFA

This song is really easy, but it's very fun to play.

There's also no muting technique or any other technique used in this song, 
which makes it even easier.
 

Intro/Verse
||-----------------------------------------------------||
||-----------------------------------------------------||
||-----------------------------------------------------||
||-4--4-4-5-4-2-4--4-4-5-4-2-4--4-4-5-4-2-4--4-4-5-4-5-||
||-2--2-2-3-2-0-2--2-2-3-2-0-2--2-2-3-2-0-2--2-2-3-0-3-||
||-----------------------------------------------------||
[ Tab from: http://www.guitaretab.com/p/pain/145024.html ]
Chorus
||-----------------------------------------------------------------||
||-----------------------------------------------------------------||
||-----------------------------------------------------------------||
||---------------------------------5-5-5-5-5-5-5-5-2-2-2-2-2-2-2-2-||
||-2-2-2-2-2-2-2-2-5-5-5-5-5-5-5-5-3-3-3-3-3-3-3-3-0-0-0-0-0-0-0-0-||
||-0-0-0-0-0-0-0-0-3-3-3-3-3-3-3-3---------------------------------||

Breakdown
||------------------------------||
||------------------------------||
||------------------------------||
||-4-4--2-4-4--2-4-4--2-4-5-4-2-||
||-2-2--0-2-2--0-2-2--0-2-3-2-0-||
||------------------------------||

Order of parts:

Intro/Verse X2
Rest
Intro/verse X2
Chorus      X2
Intro/verse X2
Rest
Intro/verse X2
Chorus      X4
Rest
Breakdown   X4
Chorus Repeat untill the end of the song.

Post the comments on UG, and if you can't post here: lorenzo_gamefreak@hotmail.com
Related for End Of The Line tab