Guitaretab - guitar tabs
Song name
# A B C D E F G H I J K L M N O P Q R S T U V W X Y Z
Home / P / Pain / Byedie tab

Pain - Byedie tab

tab by cissou

Bye/die
Pain
Dancing with the dead

Riff 1 Guitar 1                      end 1       end 2
|-------------|-------------------|---------|------------|
|-------------|-------------------|---------|------------|
|-8-9-9-9-9-9-|-4-4-4-4-5-5-5-5-5-|-5/8-8-8-|-5/10-10-11-|
|-8-9-9-9-9-9-|-4-4-4-4-5-5-5-5-5-|-5/8-8-8-|-5/10-10-11-|
|-6-7-7-7-7-7-|-2-2-2-2-3-3-3-3-3-|-3/6-6-6-|-3/8--8--9--|
|-------------|-------------------|---------|------------|

[ Tab from: http://www.guitaretab.com/p/pain/184875.html ]
Chorus Guitar 1 & 2
(Bye bye, why don't you go and .....)end 1       end 2
|-------------|-------------------|---------|------------|
|-------------|-------------------|---------|------------|
|-8-9-9-9-9-9-|-4-4-4-4-5-5-5-5-5-|-5/8-8-8-|-5/10-10-11-|
|-8-9-9-9-9-9-|-4-4-4-4-5-5-5-5-5-|-5/8-8-8-|-5/10-10-11-|
|-6-7-7-7-7-7-|-2-2-2-2-3-3-3-3-3-|-3/6-6-6-|-3/8--8--9--|
|-------------|-------------------|---------|------------|

For this part, I just give you the chords. I advise you to listen the music many times 
with attention. The rythm isn't difficult but be careful to take it.

Riff 2 Guitar 1
(There's nothing to see here ........)
|-------------------------|
|-------------------------|
|-4---9---5---4---12---11-|
|-4---9---5---4---12---11-|
|-2---7---3---2---10---9--|
|-------------------------|
 PM  PM  PM  PM   PM   PM
Related for Byedie tab