Song name
# A B C D E F G H I J K L M N O P Q R S T U V W X Y Z

Pain - End Of The Line tab

-------------------------------------------------------------------------------
			     PAIN - End Of The Line
-------------------------------------------------------------------------------
Tabbed by: Babbo Lozada
Email:bryanlozada@hotmail.com

First of all, Pain, or better said Peter Tägtgren, fucking kicks ass.. Second, the only
of "End of The Line" here on UG, says it's tune to Drop - A... I don't know what kind of
posted that here, noticeable, it's no musician at all.. There's little guitar in this 
but this is 100% perfect and EXTREMELY easy to play..

Tuning: Standard - Drop D (DADGBE)

Intro/Verse:
    2x

e|----------------------------------------------------------------------------|
B|----------------------------------------------------------------------------|
G|----------------------------------------------------------------------------|
D|-2----222h3-2-0-2---222h3-2-0-2---222h3-2-0-2---222h3-2-0-2----222h3-5-3--2-|
A|-2----222h3-2-0-2---222h3-2-0-2---222h3-2-0-2---222h3-2-0-2----222h3-5-3--2-|
D|-2----222h3-2-0-2---222h3-2-0-2---222h3-2-0-2---222h3-2-0-2----222h3-5-3--2-|


Chorus:
    4x

e|------------------------------------------------------------------------|
B|------------------------------------------------------------------------|
G|-2---5------------------------------------------------------------------|
D|-2---5---3---0----------------------------------------------------------|
A|-0---3---3---0----------------------------------------------------------|
D|---------3---0----------------------------------------------------------|


Bridge:
    4x

e|------------------------------------------------------------------------|
B|------------------------------------------------------------------------|
G|------------------------------------------------------------------------|
D|-2--00--2--00--2--00-2h3--2-0-2--0--------------------------------------|
A|-2--00--2--00--2--00-2h3--2-0-2--0--------------------------------------|
D|-2--00--2--00--2--00-2h3--2-0-2--0--------------------------------------|


Last Chorus:
    8X
                   ~~~~~~Let ring last chord~~~~~~
e|----------------|-----------------------------------------------------|
B|----------------|-----------------------------------------------------|
G|-2---5----------|---2~~~~~~~~-----------------------------------------|
D|-2---5---3---0--|---2~~~~~~~~-----------------------------------------|
A|-0---3---3---0--|---0~~~~~~~~-----------------------------------------|
D|---------3---0--|-----------------------------------------------------|

************************************
| h   hammer-on
| ~   vibrato


************************************
Tap to rate this tab
# A B C D E F G H I J K L M N O P Q R S T U V W X Y Z