Guitaretab - guitar tabs
Song name
# A B C D E F G H I J K L M N O P Q R S T U V W X Y Z

Paint It Black - Womb Envy tab

PAINT IT BLACK
WOMB ENVY

NOTE: if this isn't that good, cut me slack, I tabbed it off THUG.

Tunning: standard

INTRO
guitar 1
|-----------------------------|
|-----------------------------|
|-7~--11----------------------|
|-7~--12~--12-12--10--9-9--7-5|
|-5~--x-~--12-12--10--9-9--7-5|
|-----10~--10-10--8---7-7--5-3|

VERSE:
both guitars
|------------------------| Play 4 times
|------------------------|
|------------------------|
|-77-6-55-6-77-9-10101010|
|-77-6-55-6-77-9-10101010|
|-55-4-33-4-55-7-8-8-8-8-|

CHORUS
both guitars
|--------------------------------| PLAY TWICE
|--------------------------------|
|-4---4----------4---4-7-5-555555|
|-4-5-4-7-777777-4-5-4-7-5-555555|
|-2-5-2-7-777777-2-5-2-5-3-333333|
|---3---5-555555---3-------------|
          PM....           PM....
[ Tab from: http://www.guitaretab.com/p/paint-it-black/82675.html ]
INTERLUDE 1
guitar 1
|--------------------|
|--------------------|
|-------------------5|
|-------------------5|
|-00--------00-2-3333|
|----4-33-4----------|

PLAY VERSE
PLAY CHORUS

INTERLUDE
guitar 1
|----------------------------------------|
|----------------------------------------|
|----------------------------------------|
|--------------------5-6-7-9---7---9---12|
|--------------------5-6-7-9---7---9---12|
|--------------------3-4-5-7---5---7---10|

BREAKDOWN
both guitars
|----------------------------------------| PLAY TWICE
|----------------------------------------|
|----------------------------------------|
|-7--6-5---7--9-10--7--6-5---7--9-10\9/10|
|-7--6-5---7--9-10--7--6-5---7--9-10\9/10|
|-5--4-3---5--7-8---5--4-3---5--7-8-\7/8-|

OUTRO/SOLO
guitar 1
|---------------------------7-888-|PLAY TWICE
|-10-10-10-9-888-9-10-10-10-------|
|---------------------------------|
|---------------------------------|
|---------------------------------|
|---------------------------------|

Gutiar 2 plays verse riff twice

KEY:
PM...: palm mute
~: let ring
/:slide up
\:slide down
Related for Womb Envy tab
×
Womb Envy