Song name
# A B C D E F G H I J K L M N O P Q R S T U V W X Y Z

Pajaro Sunrise - Drunk tab

"Drunk" by Pájaro Sunrise
Official Website: http://www.pajarosunrise.com/

Tabbed by: Tio Rex Machine

I know it's not perfect, but since I can't find any tabs on Pájaro Sunrise 
anywhere I thought i'd give it a shot.
Hope you enjoy and go check their latest album "Done / Undone".
It's pretty good

*it's my first tab btw, so be gentle :)


Standart Tuning
CAPO on 2nd Fret



Intro

e|--------------------|------------0----------|
B|--1---------1-------|--1------------1-------|
G|-----------0--0-0---|-----------0----0------|
D|-----2--3------3----|-----2--3--------------|
A|--------------------|-----------------------|
E|--------------------|-----------------------|

e|--------------------------------------------|
B|--1---------1-------1-----------------------|
G|----------0-----0-0-------------------------|
D|-----2--3--3-----3------2--3----------------|
A|--------------------------------------------|
E|--------------------------------------------|



Chorus

e|---------0----------------3--0---------------0------------------|
B|--1---3-----3--1h3--1--3--------3p1---1---3-----3--1--1---------|
G|----------------------------------------------------------------|
D|----------------------------------------------------------2---3-|
A|----------------------------------------------------------------|
E|----------------------------------------------------------------|

and that's it

Tap to rate this tab
# A B C D E F G H I J K L M N O P Q R S T U V W X Y Z