Guitaretab - guitar tabs
Song name
# A B C D E F G H I J K L M N O P Q R S T U V W X Y Z

Pale Kids - Driven By Obsession tab

http://www.palekids.com/

Intro to Driven By Obsession Tab by the Pale Kids

Standard Tuning

I think it sounds alright.

Palm muted notes have a . under them.


                                  Natural Harmonics
E--------------------------------------5*-------------|
B--------------------------------------5*-------------|
G--------------------------------------5*-------------|
D--7-7---7-7---7-7---3-3---3-3---3-3---5*-------------|
A--7-7---7-7---7-7---3-3---3-3---3-3------------------|
E--5-5---5-5---5-5---1-1---1-1---1-1------------------|
   . .   . .   . .   . .   . .   . .
[ Tab from: http://www.guitaretab.com/p/pale-kids/89006.html ]
E---------------------------------------|
B---------------------------------------|
G---------------------------------------|
D--7-7---7-7---7-7---3-3---3-3---3-3----|   Repeat with next measure 4x
A--7-7---7-7---7-7---3-3---3-3---3-3----|
E--5-5---5-5---5-5---1-1---1-1---1-1----|
   . .   . .   . .   . .   . .   . .

E-------------------------------------------------|
B-------------------------------------------------|
G-----------------------------------12------------|
D-------10---10--9-----10---10--9------12--10-----|    x 4
A---0-0----0-------0-0----0-------0---------------|
E-------------------------------------------------|
    . .    .       . .    .       .

Intro chords are played here again.

Then some picked out chords are played, I don't feel like tabbing that out.