Guitaretab - guitar tabs
Song name
# A B C D E F G H I J K L M N O P Q R S T U V W X Y Z

Palladium - Butterflies tab

      PALLADIUM - BUTTERFLIES
      TABBED BY ANDREW (roo_6339@hotmail.com)

      This is a new brisbane/australian band, so not many of you will have
      heard it. It's a great song! If you get the chance, download it (if you
      don't already have it) and see if you like it. Their official site  
      is http://www.palladium.net.au

      intro/verse/chorus:
[ Tab from: http://www.guitaretab.com/p/palladium/122194.html ]
        e|--------------------------------------------------|
        b|--------------------------------------------------|
        g|--7--7--7--7--------------3--3--3--3--------------|
        d|--7--7--7--7--3--3--3--3--3--3--3--3--3--3--3--3--|
        a|--5--5--5--5--3--3--3--3--1--1--1--1--3--3--3--3--|
        e|--------------1--1--1--1--------------1--1--1--1--|
          
      listen to the song to get the different speeds that these 
      chords are played for the different verses and choruses.
      

      solo:

	e|--13--10--13----13--10--13----13--10--13--10------|
	b|----------------------------------------------13--|
	g|--------------------------------------------------|
	d|--------------------------------------------------|
	a|--------------------------------------------------|
	e|--------------------------------------------------|
    
    Any comments/criticism/corrections, just send me them. My e-mail's up
    there.