Song name
# A B C D E F G H I J K L M N O P Q R S T U V W X Y Z

Palma Violets - Chicken Dippers tab

Song:Chicken Dippers
Album:180(2013)
Guitarist:Sam Fryer


Keyboard and Drum intro

-------------------|Times 2
-------------------|
-------------------|
-------------------|
---7--7-9-7-9-3-5--|
-------------------|

E            D
Take me down,Take me go
E            D
And im gone, away again
E             D
Your hair your hair is on fire
E             D
Your hair is on fire
        G                             D
And you make me feel like im the only one
Woo!

----------------10b-------------------------------------------|
-12b-12b-12b-12b----12b-10b-----------------------------------|
---------------------------9b-11b-11b-11b-11b-11b-11b-9b------|
--------------------------------------------------------------|
--------------------------------------------------------------|
--------------------------------------------------------------|
        G                             D
And you make me feel like im the only one

-------------------|Times 2
-------------------|
-------------------|
-------------------|
---7--7-9-7-9-3-5--|
-------------------|
E                     D
Im running Im running around
E                     D
Im running Im running around
E                     D
Your hair your hair is on fire
E                     D
your hair is a stone red gage

        G                             D
And you make me feel like im the only one
Woo!

----------------10b-------------------------------------------|
-12b-12b-12b-12b----12b-10b-----------------------------------|
---------------------------9b-11b-11b-11b-11b-11b-11b-9b------|
--------------------------------------------------------------|
--------------------------------------------------------------|
--------------------------------------------------------------|
        G                             D
And you make me feel like im the only one
Woo!

----------------10b-------------------------------------------|
-12b-12b-12b-12b----12b-10b-----------------------------------|
---------------------------9b-11b-11b-11b-11b-11b-11b-9b------|
--------------------------------------------------------------|
--------------------------------------------------------------|
--------------------------------------------------------------|

        G                             D
And you make me feel like im the only one im the only one

--------------------|
--------------------|
--------------------|
-----2-4-2----------|
-2-5-------5-2------|
--------------------|
        G                             D               (E)
And you make me feel like im the only one im the only
Tap to rate this tab
# A B C D E F G H I J K L M N O P Q R S T U V W X Y Z