Song name
# A B C D E F G H I J K L M N O P Q R S T U V W X Y Z

Palma Violets - We Found Love tab

Not quite complete, not 100% sure what is played after the Second Solo.

Chorus and Verse
e|---------------------------------------------------------------------------|
B|---------------------------------------------------------------------------|
G|--7-7----------------------------------------------------------------------|
D|--7-7------------9-9-9-9-9-9-----------------------------------------------|
A|--5-5------------9-9-9-9-9-9-----------------------------------------------|
E|-----------------7-7-7-7-7-7-----------------------------------------------|



SOLO 1

e|----7-5-3-2---2h3-2-0-------------------------------------------------------|
B|-----------------------3-3--------------------------------------------------|
G|----------------------------4-6-7-7-7-7--4-6-7-7-7-7--4-6-7-7-7-7-7-7-7-7-7-|
D|----------------------------------------------------------------------------|
A|----------------------------------------------------------------------------|
E|----------------------------------------------------------------------------|


SOLO 2
-
e|---------------------------------------------------------------------------|
B|---------------------------------------------------------------------------|
G|----------------------------------------7-5--------------------------------|
D|----------------------------------------7-5--------------------------------|
A|--9---9-10-9-7-5-5----10-10-10-9-7-5-5--5-3--------------------------------|
E|---------------------------------------------------------------------------|

e|---------------------------------------------------------------------------|
B|---------------------------------------------------------------------------|
G|------------------------7-5-----------------------7-5----------------------|
D|------------------------7-5-----------------------7-5----------------------|
A|------10-10-10-9-7-5-5--5-3------10-10-10-9-7-5-5-5-3----------------------|
E|---------------------------------------------------------------------------|

POST SOLO

Not 100% but it involves these

G-7   G-5
D-7   D-5
A-5 , A-3

You'll just have to play about with the last bit!
Tap to rate this tab
 
# A B C D E F G H I J K L M N O P Q R S T U V W X Y Z