Song name
# A B C D E F G H I J K L M N O P Q R S T U V W X Y Z

Palma Violets - Best Of Friends tab

Great tune, 100% correct solo. 

e|---------------------------------------------------------------|
B|--10-10-10-10-8---8--------------------------------------------|
G|----------------9---9--7--5------------------------------------|
D|----------------------------7----------------------------------|
A|---------------------------------------------------------------|
E|---------------------------------------------------------------|

e|---------------------------------------------------------------|
B|-10-10-10-10-8---8---------------------------------------------|
G|---------------9---9--7--5-------------------------------------|
D|---------------------------------------------------------------|
A|---------------------------------------------------------------|
E|---------------------------------------------------------------|

e|---------------------------------------------------------------|
B|-10-10-10-10-8---8---------------------------------------------|
G|---------------9---9-7-5-----9-9-9-9-9-10-9-7-5----------------|
D|-------------------------7-------------------------------------|
A|---------------------------------------------------------------|
E|---------------------------------------------------------------|

Tap to rate this tab
 
# A B C D E F G H I J K L M N O P Q R S T U V W X Y Z