Song name
# A B C D E F G H I J K L M N O P Q R S T U V W X Y Z

Palma Violets - I Remember tab

I Remember
Palma Violets Forthcoming Album???? Really through together tab, May be Completely 
different on an Album or single so will correct any mistakes!!!! Just ask...
NME BRAZIL  https://www.youtube.com/watch?v=acMlMr46ORk

Intro

e|-3s5s3----------------------------------------10h12-10------------|
B|-------3s5s3-0-1s-5s8s5s-1s-5s8s5s-6-10s13s10----------10h12-10---|
G|----------------------------------------------------------------12|
D|------------------------------------------------------------------|
A|------------------------------------------------------------------|
E|------------------------------------------------------------------|

e|--------------------------------10h12-10---------------|
B|-1s-5s8s5s-1s-5s8s5s-6-10s13s10----------10h12-10------|
G|--------------------------------------------------12---|
D|-------------------------------------------------------|
A|-------------------------------------------------------|
E|-------------------------------------------------------|


C                 A,F,G
I've Been Thinking
Hoping and Praying
That you will Remember
And comeback to

Times 2

e|--------------------------------10h12-10---------------|
B|-1s-5s8s5s-1s-5s8s5s-6-10s13s10----------10h12-10------|
G|--------------------------------------------------12---|
D|-------------------------------------------------------|
A|-------------------------------------------------------|
E|-------------------------------------------------------|


C                 A,F,G
I've Been Thinking
Of All I Did about That
Do you think this body will last?
I'm Hoping

Times 2

e|--------------------------------10h12-10---------------|
B|-1s-5s8s5s-1s-5s8s5s-6-10s13s10----------10h12-10------|
G|--------------------------------------------------12---|
D|-------------------------------------------------------|
A|-------------------------------------------------------|
E|-------------------------------------------------------|

C     Bm                Am                    GGGGGG
Again, Your So in love, Remember, I Love Losing you
Am                 Bm                 F                     GGGGGG
You'll Find In Time my love is Blind? I'll Be Waiting For You

e|-3s5s3----------------------------------------10h12-10---------------------------------|
B|-------3s5s3-0-1s-5s8s5s-1s-5s8s5s-6-10s13s10----------10h12-10------------------------|
G|----------------------------------------------------------------12---------------------|
D|---------------------------------------------------------------------------------------|
A|---------------------------------------------------------------------------------------|
E|---------------------------------------------------------------------------------------|

e|--------------------------------10h12-10---------------|
B|-1s-5s8s5s-1s-5s8s5s-6-10s13s10----------10h12-10------|
G|--------------------------------------------------12---|
D|-------------------------------------------------------|
A|-------------------------------------------------------|
E|-------------------------------------------------------|

C                 A,F,G
I've Been Thinking
Hoping and Praying
That you will Remember
And comeback to

e|---------------------------------------------------|
B|-1s-5s8s5s-1s-5s8s5s-6-10s13s10-15-15-15-15-15-15-1|
G|---------------------------------------------------|
D|---------------------------------------------------|
A|---------------------------------------------------|
E|---------------------------------------------------|
Tap to rate this tab
# A B C D E F G H I J K L M N O P Q R S T U V W X Y Z