Song name
# A B C D E F G H I J K L M N O P Q R S T U V W X Y Z

Paloma Faith - Cant Rely On You tab

-------------------------------------------------------------------------------
                             Can't rely on you - Paloma Faith
-------------------------------------------------------------------------------
Album: a Perfect Contradiction
Tabbed by: Brands99
Tuning:Standard 
b = bend
h = hammer on

e|---------------------------------------------------------------------------|
B|---------------------------------------------------------------------------|
G|-7b8-----------------------------------------------------------------------|
D|-----9--9-7----7h9-9--7----------------------------------------------------|
A|-------------9-------------------------------------------------------------|
E|---------------------------------------------------------------------------|

e|---------------------------------------------------------------------------|
B|---------------------------------------------------------------------------|
G|-7b8-----------------------------------------------------------------------|
D|-----9--9-7----7h9-9--7----------------------------------------------------|
A|-------------9-------------------------------------------------------------|
E|---------------------------------------------------------------------------|


Play this throughout the song

Tap to rate this tab
# A B C D E F G H I J K L M N O P Q R S T U V W X Y Z