Song name
# A B C D E F G H I J K L M N O P Q R S T U V W X Y Z

Pambo - Tras Nubes tab

Tras Nubes - Pambo

Intro
e|----3-----3------2-----3p2------|
B|-----3-----3---------------3p0--|
G|--------------------------------|
D|---------------0-----0----------|
A|--2-----3-----------------------|
E|--------------------------------|x2

e|----3-----3------2-----3p2------|
B|-----3-----3---------------3p0--|
G|--------------------------------|
D|---------------0-----0----------|
A|--2-----3-----------------------|
E|--------------------------------|
 Hay en ti amor un cielo

e|----3-----3------2-----3p2------|
B|-----3-----3---------------3p0--|
G|--------------------------------|
D|---------------0-----0----------|
A|--2-----3-----------------------|
E|--------------------------------|
 Que no encuentro

e|----3-----3------2-----3p2------|
B|-----3-----3---------------3p0--|
G|--------------------------------|
D|---------------0-----0----------|
A|--2-----3-----------------------|
E|--------------------------------|
 Y esque está tan dentro que
Sólo veo el reflejo

Este riff se toca en el verso
e|------9--|
B|--7/8----|
G|---------|
D|---------|
A|---------|
E|---------|

G Cadd9 D
Hay en ti amor
G Cadd9 D
Un millón de estrellas
G Cadd9 D
Pero están tras nubes
G Cadd9 D
Y es que evitas verlas

G Am C
Y si dejas que diga que tanto te quiero
G Am C
En vez de buscarme pero tras pero
G Am C
Y es que tú me extrañas entonces escucha
G Am C
No hay nadamas que amor aquí

e|---------------------------|
B|--3/5-5-3-8-7-5-7-5-7-7\3--|
G|---------------------------|
D|---------------------------|
A|---------------------------|
E|---------------------------|

e|---------------------------|
B|--3/5-5-3--8-7-5-7-8-7b----|
G|---------------------------|
D|---------------------------|
A|---------------------------|
E|---------------------------|



(Se toca la intro y el riff del verso)
G Cadd9 D
Cada que imagino
G Cadd9 D
Pienso en mil momentos
G Cadd9 D
En que estas conmigo pero 
G Cadd9 D
Se que miento

G Am C
Y si dejas que diga que tanto te quiero
G Am C
En vez de buscarme pero tras pero
G Am C
Y es que tú me extrañas entonces escucha
G Am C
No hay nadamas que amor aquí

Puente:
F G F G F G A# A
Solo: G Am C

Y si dejas que diga que tanto te quiero
En vez de buscarme pero tras pero
Y es que tú me extrañas entonces escucha
No hay nadamas que amor aquí

G Am C
Y si dejas que diga que tanto te quiero
G Am C
En vez de buscarme pero tras pero
G Am C
Y es que tú me extrañas entonces escucha
G D G
No hay nadamas que amor

| /  slide up
| \  slide down
| h  hammer-on
| p  pull-off
| ~  vibrato
| +  harmonic
| x  Mute note
===============================================================================
Tap to rate this tab
# A B C D E F G H I J K L M N O P Q R S T U V W X Y Z