Song name
# A B C D E F G H I J K L M N O P Q R S T U V W X Y Z

Pan - Tagpuan tab

Tagpuan
Artist: PAN/Dong Abay
Album: Parnaso ng Payaso	
Tabbed By: Jay C. Hingco

Any Comments and Suggestions Are Welcome/Agapao_soe@yahoo.com
Note: Originally Played By Two Guitars
      Listen to the song so that you can get the proper timing.

Standard Tuning
CAPO 3

Intro:
     A
|----0000----0000----0000--------------|
|----2222----2222----2222--------------|
|----2222----2222----2222--------------|
|----2222----2222----2222--------------|
|--0-------0-------0------0------------|
|----------------------------0--2--4---|
     A                 E                 D                 A
    Saan ka man.. Ngayun..   Sana.. Mainam            Kondisyun
|----0000----0000----0000---0-----------2222---2----------0000--------------|
|----2222----2222----0000---0-----------3333---3----------2222--------------|
|----2222----2222----1111---1-----------2222---2----------2222--------------|
|----2222----2222----2222---2---------0------0------------2222--------------|
|--0-------0---------2222---2---2--4--------------4--2--0-------0-----------|
|------------------0------0---------------------------------------0--2--4---|
     A                          E                D                 A
|----0000----0---------0000---0----------2222---2----------0000--|Rep'Stanza
|----2222----2---------0000---0----------3333---3----------2222--|
|----2222----2---------1111---1----------2222---2----------2222--|
|----2222----2---------2222---2--------0------0------------2222--|
|--0-------0-----------2222---2---2--4-------------4--2--0-------|
|--------------4--2--0------0------------------------------------|PAUSE
Chorus:
        D                A                E          D       A       A7
     Habang ako
|----2222--2----------0000---0----------0---------2222----0000----0000---R-|
|----3333--3----------2222---2----------0---------3333----2222----2222---E-|
|----2222--2----------2222---2----------1---------2222----2222----0000---P-|
|--0------0-----------2222---2----------2-------0---------2222----2222---E-|
|-------------4--2--0------0------------2--2--4---------0-------0--------A-|
|------------------------------4--2--0-----------------------------------T-|
Solo Part:
D-A-E2x

Laging Aasa
Bm-E-A-F#m Fade


  Tinatamad na kasi akong gawan ng tab ung last part tsaka solo. .kaya nyo na yan!
  Paki-Rate naman po. .TNX!
Tap to rate this tab
 
# A B C D E F G H I J K L M N O P Q R S T U V W X Y Z