Song name
# A B C D E F G H I J K L M N O P Q R S T U V W X Y Z

Panda Bear - Comfy In Nautica tab

Panda Bear - Comfy In Nautica VOCALS tab
Just follow Panda Bear's voice and add some reverb!
tabbed by Blubid


e-------|
B--11~--|
G-------|
D-------|
A-------|
E-------|
   TRY!

Verse 1:

e-----------------------------|
B-----------------------------|
G-3---5--7----3--6---5--3-----|
D--------------------------3--|
A-----------------------------|
E-----------------------------|
  Try to tell me how to do it

e--------------------------------|
B--------------------------------|
G-3--5--7--3-----6---5----3------|
D----------------------------3---|
A--------------------------------|
E--------------------------------|
  On-ly be-cause I'm used to it


Chorus 1:

e-----------------------------------------------------------|
B-----------------------------------------------------------|
G-10-10---8---7-10---8---7------10-10--12--8---7-----10-----|
D-----------------------------------------------------------|
A-----------------------------------------------------------|
E-----------------------------------------------------------|
  Coolness is having cou-rage, Courage to do what's right

e-----------------------------------------------------------|
B-----------------------------------------------------------|
G-10-10---8-7--10---8--7-----10--10--12--8--7---10----------|
D-----------------------------------------------------------|
A-----------------------------------------------------------|
E-----------------------------------------------------------|
  Try to re-mem-ber al-ways, Just to have a good time


Verse 2:

e---------------------------------|
B---------------------------------|
G-3---5--7----3--6----5---3-------|
D------------------------------3--|
A---------------------------------|
E---------------------------------|
  Try to show me that you know me

e---------------------------------------|
B---------------------------------------|
G-3---5--7----3----6--5-----3-3---------|
D----------------------------------3----|
A---------------------------------------|
E---------------------------------------|
  Do you know what coolness really is?


Chorus 2:

e--------------------------------------------------------------------|
B--------------------------------------------------------------------|
G-10-10---8--7----10--8----7---7--7-----10---10-----12-----8--7--10--|
D--------------------------------------------------------------------|
A--------------------------------------------------------------------|
E--------------------------------------------------------------------|
  Winning is what you want to, Winning what you're scared to go for

e-----------------------------------------------------------|
B-----------------------------------------------------------|
G-10-10---8-7--10---8--7-----10--10--12--8--7---10----------|
D-----------------------------------------------------------|
A-----------------------------------------------------------|
E-----------------------------------------------------------|
  Try to re-mem-ber al-ways, Just to have a good time

e-------------|
B-------------|
G---7---10~---|
D-------------|
A-------------|
E-------------|
   Good time


Verse 3:

e-------------------------------|
B-------------------------------|
G-3---5---7---3--6---5---3------|
D---------------------------3---|
A-------------------------------|
E-------------------------------|
  Try and have a sof-ter in-side

e-------------------------------|
B-------------------------------|
G-3----5--7---3--6---5---3------|
D--------------------------3----|
A-------------------------------|
E-------------------------------|
  Shut up boy and be a sol-dier

-Chorus 1
-Chorus 2
Tap to rate this tab
# A B C D E F G H I J K L M N O P Q R S T U V W X Y Z