Song name
# A B C D E F G H I J K L M N O P Q R S T U V W X Y Z

Panda Bear - Take Pills tab

Take Pills - Panda Bear VOCALS tab
Just follow Panda Bear's voice and add some reverb!
tabbed by Blubid


Part 1:

e-------------------------------------------------|
B-------------------------------------------------|
G-9----7/6--------6h7--6--------------------------|
D-------------9~----------7--7-----------7-7h9~---|
A---------------------------------9---9-----------|
E-------------------------------------------------|
 Sure-ly there is no-o substitute for company

e-----------------------------------------------------|
B-----------------------------------------------------|
G-9--7/6------------6h7----6--------------------------|
D----------9-9~--------------7------------7--7h9--9---|
A--------------------------------9---9----------------|
E-----------------------------------------------------|
 My  mom's ripping off her hands one flake at a   time


e------------------7-----------------------------------------------|
B-7---9---10--9---------10/9--7-----10--9----7---------------------|
G-------------------------------------------------9---6------------|
D-------------------------------------------------------9-7/6------|
A-------------------------------------------------------------9----|
E------------------------------------------------------------------|
  All her chil-dren left the house  and left her  all alo-o-o-one..

e-----------------------------------------------------------------|
B-----------------------------------------------------------------|
G-9--7----6--------------6--7----6--------------------------------|
D---------------9----9-------------7--------------7----7h9---9~---|
A---------------------------------------9----9--------------------|
E-----------------------------------------------------------------|
 But like she'd tell me  it gets better just wait and you'll see

e-----------------------|
B-----------------------|
G-----------------------|
D------7---7h9----9~----|
A-9---------------------|
E-----------------------|
  Wait and you'll see

Part 2:

e------------------------------------------------------------|
B------------------------------------------------------------|
G-9---7---6---6-6--------------------------------------------|
D------------------9----7--7-7-----6----6---6---------7------|
A-----------------------------------------------9-------7----|
E------------------------------------------------------------|
 Take one day at a time everything else you can leave behind

e------------------------------------------------------------|
B------------------------------------------------------------|
G-9-9-9---7-----6-6------------------------------------------|
D--------------------9----7--7-7---6----6--6---------7-------|
A-----------------------------------------------9---------7--|
E------------------------------------------------------------|
 Only one thing at a time anything more really hurts your mind


e------------------------------------------------------------------|
B------------------------------------------------------------------|
G-7-6-----7----6---7--9--------------------------------------------|
D------------------------9----9------7-7-6-----7---6---------9-----|
A-------------------------------------------------------9----------|
E------------------------------------------------------------------|
  I don't want for us to take pills  any more  not that it's bad

e------------------------------------------------------------------|
B------------------------------------------------------------------|
G-7-6-----7----6---7--9--------------------------------------------|
D------------------------9----9-----7h9---9-----9----9-----9----9--|
A------------------------------------------------------------------|
E------------------------------------------------------------------|
  I don't want for us to take pills, take pills take pills take pills

e------------------------------------------------|
B------------------------------------------------|
G-------------9---7/6--6------------------6------|
D--9----9------------------9--9-----7------------|
A------------------------------------------------|
E------------------------------------------------|
  Cause we're stronger and we don't need them
Tap to rate this tab
# A B C D E F G H I J K L M N O P Q R S T U V W X Y Z