Song name
# A B C D E F G H I J K L M N O P Q R S T U V W X Y Z

Panda Su - Pot Kettle Black tab

I came across this song on Songza one night, and I'm glad I did.
I went out and bought Sticks and Bricks and I Begin and started
learning how to play the songs.


Capo on 5


|-----------------------------------|
|--------3-------3-------3----------|
|----0-------0-------0-------0---0--|
|-----------------------------------|
|--3---3---3---3---3---3---3---3----|
|-----------------------------------|

|-----------------------------------|
|--------3-------3-------3----------|
|----0-------0-------0-------0---0--|
|-----------------------------------|
|-----------------------------------|
|--3---3---3---3---3---3---3---3----|

(Repeat several times, then:)

|-----------------------------------|
|--------3-------3-------3----------|
|----0-------0-------0-------0---0--|
|-----------------------------------|
|-----------------------------------|
|--2---2---2---2---2---2---2---2----|

|-----------------------------------|
|--------3-------3-------3----------|
|----0-------0-------0-------0---0--|
|-----------------------------------|
|-----------------------------------|
|--0---0---0---0---0---0---0---0----|

|-----------------------------------|
|--------3-------3-------3----------|
|----0-------0-------0-------0---0--|
|-----------------------------------|
|--3---3---3---3---3---3---3---3----|
|-----------------------------------|

|-----------------------------------|
|--------3-------3-------3----------|
|----0-------0-------0-------0---0--|
|-----------------------------------|
|-----------------------------------|
|--3---3---3---3---3---3---3---3----|


You'll have to learn the feel of the song to get the changes


And these are the harmonies played on another guitar:

|-------------------|-------------------|
|-------------------|-------------------|
|--0-0-0-0-0-0-0-0--|-------------------|
|--2-2-2-2-2-2-2-2--|--0-0-0-0-0-0-0-0--|
|-------------------|--2-2-2-2-2-2-2-2--|
|-------------------|-------------------|

|-------------------|-------------------|
|-------------------|-------------------|
|-------------------|-------------------|
|--2-2-2-2-2-2-2-2--|-------------------|
|--3-3-3-3-3-3-3-3--|--2-2-2-2-2-2-2-2--|
|-------------------|--3-3-3-3-3-3-3-3--|



That's it! Simple to learn, fun to play.
Any comments, questions, etc. e-mail bambrown@comcast.net
Tap to rate this tab
# A B C D E F G H I J K L M N O P Q R S T U V W X Y Z