Song name
# A B C D E F G H I J K L M N O P Q R S T U V W X Y Z

Panda - Mi Muneca tab

Esta musika es lA mejor de PXNDX xD y es muy facil!!!!
Un saludo para toda la gent de Peru Especialmente d Abancay xD....
para q vean q si hay buenos en la musik en AbC! un saludo al grupo [ArterIa]
bueno aki esta la musika: 
----------->d-a-n-y_17@hotmail.com
y dic azI!! :

E|--------------------------------------------------|
B|--1----3-----1----3--5--6--5--3--1--1h3--1--0--1--|
G|--------------------------------------------------|
D|----2-----2----2----------------------------------|
A|--3----3-----3------------------------------------|
E|--------------------------------------------------|

E|--------------------------------------------------|
B|--1----3-----1----3--5--6--5--3--1--1h3--1--0--1--|
G|--------------------------------------------------|
D|----2-----2----2----------------------------------|
A|--3----3-----3------------------------------------|
E|--------------------------------------------------|

C            G        Am    F           C
Todo lo que necesites solo yo lo puedo dar
         G             Am     F
todo lo que tu quieras yo lo tengo
C          G        Am         F          C
Necesitas un abrigo entre mis brazos estara
           G       Am     F
necesitas un camino yo lo pinto
C    G       Am    F
Mi muņeca esta llorando
C    G       Am F
mi muņeca esta
C    G       Am    F
Mi muņeca esta llorando
C    G       Am F
mi muņeca estaaaaaa
C            G          Am    F             C
Mi muņeca esta llorando pero yo no se porque
         G             Am      F
sera que no me quiere, no me quiere
C         G        Am       F         C
necesitas un amigo, aqui yo mero estare
             G             Am   F
pero te pido que me mates, matame

D    A       Bm    G    D
Mi muņeca esta llorando
     A       Bm   G
mi muņeca esta
D    A       Bm    G    D
Mi muņeca esta llorando
     A       Bm   G
mi muņeca estaaaa....


SOLO:

e|-----------------------------------------------------|
B|---10-------------------------10---------12-12-10-8--|
G|-11---9-11-9--------12-11--11---9-11-9---------------|
D|-------------12-12---------------------12------------|
A|-----------------------------------------------------|
E|-----------------------------------------------------|

E|-------------------10-----9-10-----9-10-----9-10------12-12-10-10-10-10-|
B|---10----------12-12----------------------------------------------------|
G|-11--9-11-9----------12-11----12-11----12-11-----12-11------------------|
D|------------12----------------------------------------------------------|
A|------------------------------------------------------------------------|
E|------------------------------------------------------------------------|

D    A       Bm    G    D
Mi muņeca esta llorando
     A       Bm   G
mi muņeca esta
D    A       Bm    G    D
Mi muņeca esta llorando
     A       Bm   G
mi muņeca esta

D  G      A        G       D
Sabes que fue? talvez porque?
   G     A                    D
ella lloro (nadie la hizo llorar)
   G       A      G       D
Yo la quiero, mas no quiero
    G     A                    D
verla feliz (nadie la hizo llorar)
 A                 D
(nadie la hizo llorar)
A                 D
nadie la hizo llorar....

Ezo es todo amios gg bueno es bastant buena y facil!!! espero les haia gustado!

--------------------------> QUE VIVA EL PERU!!!!!!!
Tap to rate this tab
 
# A B C D E F G H I J K L M N O P Q R S T U V W X Y Z