Song name
# A B C D E F G H I J K L M N O P Q R S T U V W X Y Z

Panda - Mi Muneca tab

Help us improve GuitareTab! Take a short survey!
E|--------------------------------------------------|
B|--1----3-----1----3--5--6--5--3--1--1h3--1--0--1--|
G|--------------------------------------------------|
D|----2-----2----2----------------------------------|
A|--3----3-----3------------------------------------|
E|--------------------------------------------------|

E|--------------------------------------------------|
B|--1----3-----1----3--5--6--5--3--1--1h3--1--0--1--|
G|--------------------------------------------------|
D|----2-----2----2----------------------------------|
A|--3----3-----3------------------------------------|
E|--------------------------------------------------|

Related for Mi Muneca tab