Song name
# A B C D E F G H I J K L M N O P Q R S T U V W X Y Z

Panda - Narcisista Por Excelencia tab

Narcisista Por Excelencia----------PXNDX


|------------------------|
|-11-----8-----11--------|
|---------------------10-|
|------------------------|
|------------------------|
|------------------------|
                                                                     x2
|-----------------------|     |------------------------|
|-11--10----------------|     |------------------------|
|--------12-10-12-10----|     |-----10-----------------|
|--------------------12-|     |-13------13--12-13-12---|
|-----------------------|     |------------------------|
|-----------------------|x3 |--------------------------|

|--------------------|-11--10-----|
|-11--10-------------|--------11~-|
|--------12-10-12-10-|------------|
|--------------------|------------|
|--------------------|------------|
|--------------------|------------|

|--------------------|-11-10-11-13-11-10-|
|-11--10-------------|-------------------|
|--------12-10-12-10-|-------------------|
|--------------------|-------------------|
|--------------------|-------------------|
|--------------------|-------------------|

|--------------------|-11--10-----|
|-11--10-------------|--------11~-|
|--------12-10-12-10-|------------|
|--------------------|------------|
|--------------------|------------|
|--------------------|------------|(todo x2)
Tap to rate this tab
# A B C D E F G H I J K L M N O P Q R S T U V W X Y Z