Song name
# A B C D E F G H I J K L M N O P Q R S T U V W X Y Z

Panda - Mueca Live tab

Muņeca-----------------PXNDX
(Sinfoni Soledad)


|-------------------------------|----------------------------|
|-------------------------------|----------------------------|
|-8--6-----6-8-9-8-6----8-6-----|-6-----6-8-9-8-6----6-------|
|-------8------------8------8-9-|----8------------8----9-8-9-|
|-------------------------------|----------------------------|
|-------------------------------|----------------------------|


|-----------------------------------------|
|-----------------------------------------|
|-----------------------------------------|
|-4-4-4-4-4-2-2-2-2-2-4-4-4-4-4-0-0-0-0-0-|
|-2-2-2-2-2-4-4-4-4-4-6-6-6-6-6-2-2-2-2-2-|
|-2-2-2-2-2-2-2-2-2-2-4-4-4-4-4-0-0-0-0-0-|


|-----------------------------------------|
|-----------------------------------------|
|-----------------------------------------|
|-6-6-6-6-6-4-4-4-4-4-6-6-6-6-6-2-2-2-2-2-|
|-4-4-4-4-4-6-6-6-6-6-8-8-8-8-8-4-4-4-4-4-|
|-4-4-4-4-4-4-4-4-4-4-6-6-6-6-6-2-2-2-2-2-|


|---------------|
|-x-x-x---x-x-x-|
|-x-x-x---x-x-x-|
|-x-x-x---x-x-x-|
|-x-x-x---x-x-x-|
|-x-x-x---x-x-x-|

|-------------------------------------------------------------|
|----9---6------7--6-6-6-----9---6------9--9-9-7-----9---6----|
|-8----8---8-6--v--v------8----8---8-6--v---------8----8---8-6|
|-v-----------------------v-----------------------v-----------|
|-------------------------------------------------------------|
|-------------------------------------------------------------|

|--------------9----------------------11-11-9|
|-9--9-9-7---------------9---------12--------|
|-v---------8-----11-10-----11-10---v--------|
|-----------v--------------------------------|
|--------------------------------------------|
|--------------------------------------------|
Tap to rate this tab
 
# A B C D E F G H I J K L M N O P Q R S T U V W X Y Z