Song name
# A B C D E F G H I J K L M N O P Q R S T U V W X Y Z

Panda - Un Tipo De Indulgencia tab

PXNDX---UN TIPO DE INDULGENCIA / POETICS (acto 2/track 6)

G1 = guitarra 1
G2 = guitarra 2

intro
G1
|-------8-11--8----------8----|--------8-----------------|
|-9--11----------11-9-11---11-|----8-9----9--8---------8-|
|-----------------------------|-9--------------10-8-10---|
|-----------------------------|--------------------------|
|-----------------------------|--------------------------|
|-----------------------------|--------------------------|x2

verso (no se hace nada)

coro (y recuerda que...)
G2
|----------|
|----------|
|----------|
|-7------9-|
|-7------9-|
|-5------7-|

|------------------|
|-8989898989898989-|
|------------------|
|------------------|
|------------------|
|------------------|x5

G1
|----------------------------------------------------------|
|----------------------------------------------------------|
|------------------1010101010101010-8888888888888888888888-|
|-1111111111111111-1010101010101010-8888888888888888888888-|
|-1111111111111111--8-8-8-8-8-8-8-8-6666666666666666666666-|
|--9-9-9-9-9-9-9-9-----------------------------------------|X4

G1
|-------8-11--8----------8----|--------8-----------------|
|-9--11----------11-9-11---11-|----8-9----9--8---------8-|
|-----------------------------|-9--------------10-8-10---|
|-----------------------------|--------------------------|
|-----------------------------|--------------------------|
|-----------------------------|--------------------------|x2

verso (quiero ya tirar...) 
G2
|-----------------|
|-----------------|
|-----------------|
|-9--x9--x9--x999-|
|-9--x9--x9--x999-|
|-7--x7--x7--x777-|x4

coro (y recuerda que...)
G2
|----------|
|----------|
|----------|
|-7------9-|
|-7------9-|
|-5------7-|

|------------------|
|-8989898989898989-|
|------------------|
|------------------|
|------------------|
|------------------|x5

G1
|----------------------------------------------------------|
|----------------------------------------------------------|
|------------------1010101010101010-8888888888888888888888-|
|-1111111111111111-1010101010101010-8888888888888888888888-|
|-1111111111111111--8-8-8-8-8-8-8-8-6666666666666666666666-|
|--9-9-9-9-9-9-9-9-----------------------------------------|X4

solo
G2 (ARPEGIOS a madres)x2
|---------------------8---8---8---8---------------------------------------|
|-9----9----9----9-----9---9---9---9--11----11----11----11----13----13----|
|--10---10---10---10----10--10--10--10--12----12----12----12----14----14--|
|----11---11---11---11--------------------13----13----13----13----15----15|
|-------------------------------------------------------------------------|
|-------------------------------------------------------------------------|

|-------------|
|13----13-----|
|--14----14---|
|----15----15-|
|-------------|
|-------------|

G1 x2
|-----------------------------------------------------------------|
|---------------------------------1211109-1211109-1211109-1211109-|
|-1211109-1211109-1211109-1211109---------------------------------|
|-----------------------------------------------------------------|
|-----------------------------------------------------------------|
|-----------------------------------------------------------------|

|-------------------------------------------------------------|
|-10987-10987-10987-10987-15141312-15141312-15141312-15141312-|
|-------------------------------------------------------------|
|-------------------------------------------------------------|
|-------------------------------------------------------------|
|-------------------------------------------------------------|

outro
G1
|-------8-11--8----------8----|--------8-----------------|
|-9--11----------11-9-11---11-|----8-9----9--8---------8-|
|-----------------------------|-9--------------10-8-10---|
|-----------------------------|--------------------------|
|-----------------------------|--------------------------|
|-----------------------------|--------------------------|x2

me falta poqillo maniana lo pongo

[versos]
Tu y yo amor y odio
Y tu me tratas de un mal modo
Parece que estoy en un mal sueño
Pero en verdad eres mi dueño

Otra vez a cocinar
¿Quieres un pastel o un pay?
Tengo que aprender como mezclarlo con el placer

De chocolate o de limón cualquiera causa tentación
Muy importante el betún para el cuidado de salud
De nuestra salud

[coro]
Recuerda que vivimos siempre en un infierno
Tu problema es la obsesión, es nuestro
Pecaremos contra los estándares de bello
Solo por un buen sazón al corazón

[versos]
Yo no se si aguantaremos
No se cuanto tiempo tenemos
Solo se que junto a ti estoy atado y no puedo irme lejos

Quiero ya tirar mi cruz
Quiero eterna juventud
Por lo pronto hay que ir ojeando el menú

Para empezar un buen silón
con mucha grasa y guarnición
Mecero tráigase el licor
Para cachar a esta voz que escucho en mi interior

[coro]
Recuerda que vivimos siempre en un infierno
Tu problema es la obsesión, es nuestro
Pecaremos contra los estándares de bello
Solo por un buen sazón al corazón
Tap to rate this tab
 
# A B C D E F G H I J K L M N O P Q R S T U V W X Y Z