Song name
# A B C D E F G H I J K L M N O P Q R S T U V W X Y Z

Panda - Del Rapto Y Otros Pormenores tab

PXNDX---DEL RAPTO Y OTROS PORMENORES / POETICS(acto1/track9)

intro
|------------------------------------|
|------------------------------------|
|------------------------------------|
|-------11-9-8------8/9/8------8-9-11|
|-6/9-9--------11-9-------11-9-------|
|------------------------------------|x2

verso (no importa...)
|----------------------------------------------|
|----------------------------------------------|
|----------------------------------111111111111|
|-999999-111111111111-131313131313-111111111111|
|-999999-111111111111-131313131313--9-9-9-9-9-9|
|-777777--9-9-9-9-9-9-111111111111-------------|x2

verso 2 (ya no importa...)
|------------------------------------|
|------------------------------------|
|-------------------------11-11-11-11|
|-9--9---11--11---13--13--11-11-11-11|
|-9--9---11--11---13--13---9--9--9--9|
|-7--7----9---9---11--11-------------|x2

coro (bamos a hacer...)
|----------------------------------|------------------------------------|
|----------------------------------|------------------------------------|
|-111111111111---------------------|--------------------------1111111111|
|-111111111111-888888-999999999999-|-141414141414141414141414-1111111111|
|--9-9-9-9-9-9-888888-999999999999-|-141414141414141414141414--9-9-9-9-9|
|--------------666666-777777777777-|-121212121212121212121212-----------|x2

|------------------------------------|
|------------------------------------|
|------------------------------------|
|-------11-9-8------8/9/8------8-9-11|
|-6/9-9--------11-9-------11-9-------|
|------------------------------------|x2

verso (no importa...)
|----------------------------------------------|
|----------------------------------------------|
|----------------------------------111111111111|
|-999999-111111111111-131313131313-111111111111|
|-999999-111111111111-131313131313--9-9-9-9-9-9|
|-777777--9-9-9-9-9-9-111111111111-------------|x2

verso 2 (ya no importa...)
|------------------------------------|
|------------------------------------|
|-------------------------11-11-11-11|
|-9--9---11--11---13--13--11-11-11-11|
|-9--9---11--11---13--13---9--9--9--9|
|-7--7----9---9---11--11-------------|x2

coro (bamos a hacer...)
|----------------------------------|------------------------------------|
|----------------------------------|------------------------------------|
|-111111111111---------------------|--------------------------1111111111|
|-111111111111-888888-999999999999-|-141414141414141414141414-1111111111|
|--9-9-9-9-9-9-888888-999999999999-|-141414141414141414141414--9-9-9-9-9|
|--------------666666-777777777777-|-121212121212121212121212-----------|x2

outro
|------------------------------------|
|------------------------------------|
|------------------------------------|
|-------11-9-8------8/9/8------8-9-11|
|-6/9-9--------11-9-------11-9-------|
|------------------------------------|x2

letra:
[verso]
No importa ya mi colección de libros
Ya no importa mi oscura juventud

[verso 2]
Ya no importa cuantos amigos tenga
Ya no importan mis anhelos y sueños

[coro]
Vamos a hacer buena la invitación
Desaparéceme estaré mejor
Vamos a hacer buena la invitación
Toda la angustia y todo el terror, termino
Termino...

[verso]
No importan ya tus joyas ni tus vestidos
Ya no importa tu supuesta madurez

[vreso 2]
Ya no importa cuantos amantes tengas
Ya no importan tus sonrisas falsas

[coro]
Vamos a hacer buena la invitación
Desaparéceme estaré mejor
Vamos a hacer buena la invitación
Toda la angustia y todo el terror, termino
Termino...

Tap to rate this tab
 
# A B C D E F G H I J K L M N O P Q R S T U V W X Y Z