Song name
# A B C D E F G H I J K L M N O P Q R S T U V W X Y Z

Panda - Poetics Acto 1 tab

Aqui esta el disco Uno de el album Poetics !!!

1-Popurrí para ti
2-Fascinante
3-Conversación casual
4-El cuello perfecto
5-Espíritu pionero
6-Solo a terceros
7-Abigail
8-Casi nula autoestima
9-Del rapto y otros pormenores
10-Nuestra aflicción

1-Popurrí para ti

Afinacion: standard

INTRO
0:10
   B5                  G#5                  E5                 C#5
e|------------------|------------------|------------------|-----14-12-----|
B|12-12-12-16-14-12-|12-12-12-16-14-12-|12-12-12-16-14-12-|14-14-----16-14|
G|------------------|------------------|------------------|---------------|
D|------------------|------------------|------------------|---------------|
(2 veses)

VERSO

0:30
e|---------------------------------------|
B|---------------------------------------|
G|---------------------------------------|
D|--22222222-44444444-5555-4444-22222222-|
A|--22222222-44444444-5555-4444-22222222-|
E|--00000000-22222222-7777-6666-44444444-|
P.M......... ........

e|------------------------------------------------------|
B|------------------------------------------------------|
G|------------------------------------------------------|
D|--22222222-44444444-5555-4444-22222222--22222222-4~~~-|
A|--22222222-44444444-5555-4444-22222222--22222222-4~~~-|
E|--00000000-22222222-7777-6666-44444444--00000000-2~~~-|

0:55
e|-------------------------------------------|
B|-------------------------------------------|
G|-------------------------------------------|
D|---22-2-22-2-44-4-44-4-55-5-44-4-22-2-22-2-|
A|---22-2-22-2-44-4-44-4-55-5-44-4-22-2-22-2-|
E|---00-0-00-0-22-2-22-2-77-7-66-6-44-4-44-4-|
P.M. ..   ..   ..   ..   ..   ..   ..   ..

e|---------------------------------------------------------|
B|---------------------------------------------------------|
G|---------------------------------------------------------|
D|---22-2-22-2-44-4-44-4-55-5-44-4-22-2-22-2--22222222-4~~~|
A|---22-2-22-2-44-4-44-4-55-5-44-4-22-2-22-2--22222222-4~~~|
E|---00-0-00-0-22-2-22-2-77-7-66-6-44-4-44-4--00000000-2~~~|
P.M. ..   ..   ..   ..   ..   ..   ..   ..    ........

CORO
1:20

  B5             G#5            E5           C#5
e|--------------|--------------|--------------|----------14-12-------|
B|-12~~~-----11-|-12~~~-----11-|-12~~~-----11-|-12-14-14-------16-14-|
G|--------11----|--------11----|--------11----|----------------------| x2
D|--------------|--------------|--------------|----------------------|


1:40

   B5                  G#5                  E5                 C#5
e|------------------|------------------|------------------|-----14-12-----|
B|12-12-12-16-14-12-|12-12-12-16-14-12-|12-12-12-16-14-12-|14-14-----16-14|
G|------------------|------------------|------------------|---------------|
D|------------------|------------------|------------------|---------------|
 (2 veces)

1:50
  G#5  F#5  B5     E5      G#5    F#5    B5     E5    G#5(P.M)     F#5(P.M)
e|----|----|------|-------|------|------|------|-----|------------|------|
B|----|----|12~~~-|9~~~-11|12~~~-|------|12~~~-|9~~~-|9~~-12-11-9-|14~~~-|
G|----|----|------|-------|------|11~~~-|------|-----|------------|------|
D|-2~~|----|------|-------|------|------|------|-----|------------|------|
A|-2~~|----|------|-------|------|------|------|-----|------------|------|
E|-4~~|----|------|-------|------|------|------|-----|------------|------|


CORO
2:15

  B5             G#5            E5           C#5
e|--------------|--------------|--------------|----------14-12-------|
B|-12~~~-----11-|-12~~~-----11-|-12~~~-----11-|-12-14-14-------16-14-|
G|--------11----|--------11----|--------11----|----------------------| x4
D|--------------|--------------|--------------|----------------------|


   B5                  G#5                  E5                 C#5
e|------------------|------------------|------------------|-----14-12-----|
B|12-12-12-16-14-12-|12-12-12-16-14-12-|12-12-12-16-14-12-|14-14-----16-14|
G|------------------|------------------|------------------|---------------|
D|------------------|------------------|------------------|---------------|
 (2 veces)
y termina con B5



2-Fascinante


intro
|-----------------------------------------------------------------|
|-----------------------------------------------------------------|
|-----------------------------------------------------------------|
|-8-8-8-8-8-8-8-8-2-2-2-2-2-2-2-2-4-4-4-4-4-4-4-4-6-6-6-6-6-6-6-6-|
|-6-6-6-6-6-6-6-6-4-4-4-4-4-4-4-4-2-2-2-2-2-2-2-2-4-4-4-4-4-4-4-4-|
|-6-6-6-6-6-6-6-6-2-2-2-2-2-2-2-2-2-2-2-2-2-2-2-2-4-4-4-4-4-4-4-4-|x2

verso (yo te contarel...)
|---1313--13----14-1414-------------|
|-11----11---11---------11----11----|
|--------------------------13----13-|
|-----------------------------------|
|-----------------------------------|
|-----------------------------------|x8

verso 2 (esta es la verdad...)
|-----------------------------------------|
|-----------------------------------------|
|-----------------------------------------|
|-8888-8888-2222-2222-4444-4444-6666-6666-|
|-6666-6666-4444-4444-2222-2222-4444-4444-|
|-6666-6666-2222-2222-2222-2222-4444-4444-|x2

coro (que increible es...)
|---------------------------------------------|
|---------------------------------------------|
|---------------------------------------------|
|-2222222222222222-6666666666666666--8---8--9-|
|-4444444444444444-4444444444444444-10--10-11-|
|-2222222222222222-4444444444444444--8---8--9-|x2

|-----------------------------------------------------------------|
|-----------------------------------------------------------------|
|-----------------------------------------------------------------|
|-8-8-8-8-8-8-8-8-2-2-2-2-2-2-2-2-4-4-4-4-4-4-4-4-6-6-6-6-6-6-6-6-|
|-6-6-6-6-6-6-6-6-4-4-4-4-4-4-4-4-2-2-2-2-2-2-2-2-4-4-4-4-4-4-4-4-|
|-6-6-6-6-6-6-6-6-2-2-2-2-2-2-2-2-2-2-2-2-2-2-2-2-4-4-4-4-4-4-4-4-|x2

verso (yo se que al finale...)
|---1313--13----14-1414-------------|
|-11----11---11---------11----11----|
|--------------------------13----13-|
|-----------------------------------|
|-----------------------------------|
|-----------------------------------|x8

verso 2 (fuerza una vez mas...)
|-----------------------------------------|
|-----------------------------------------|
|-----------------------------------------|
|-8888-8888-2222-2222-4444-4444-6666-6666-|
|-6666-6666-4444-4444-2222-2222-4444-4444-|
|-6666-6666-2222-2222-2222-2222-4444-4444-|x2

coro (que increible es...)
|---------------------------------------------|
|---------------------------------------------|
|---------------------------------------------|
|-2222222222222222-6666666666666666--8---8--9-|
|-4444444444444444-4444444444444444-10--10-11-|
|-2222222222222222-4444444444444444--8---8--9-|x2

solo
|----6-------------------------6--------------|
|-777-7-6-7-----------6-9-6-777-7-6-7---------|
|-------------6/8/6---------------------6/8/6-|
|---------------------------------------------|
|---------------------------------------------|
|---------------------------------------------|

coro que no se toca nada (que increible es...)

verso 2 (fuerza una vez mas...)
|-----------------------------------------------------------------|
|-----------------------------------------------------------------|
|-----------------------------------------------------------------|
|-8-8-8-8-8-8-8-8-2-2-2-2-2-2-2-2-4-4-4-4-4-4-4-4-6-6-6-6-6-6-6-6-|
|-6-6-6-6-6-6-6-6-4-4-4-4-4-4-4-4-2-2-2-2-2-2-2-2-4-4-4-4-4-4-4-4-|
|-6-6-6-6-6-6-6-6-2-2-2-2-2-2-2-2-2-2-2-2-2-2-2-2-4-4-4-4-4-4-4-4-|

outro (puede ser fatal...)
|-----------------------------------------------------------------|
|-----------------------------------------------------------------|
|-----------------------------------------------------------------|
|-8-8-8-8-8-8-8-8-2-2-2-2-2-2-2-2-4-4-4-4-4-4-4-4-6-6-6-6-6-6-6-6-|
|-6-6-6-6-6-6-6-6-4-4-4-4-4-4-4-4-2-2-2-2-2-2-2-2-4-4-4-4-4-4-4-4-|
|-6-6-6-6-6-6-6-6-2-2-2-2-2-2-2-2-2-2-2-2-2-2-2-2-4-4-4-4-4-4-4-4-|


3-Conversación casual

Intro

Artur Guitarra 1

|---------------------------------7-7--9-9-|
|---7-7-7--9-9-9---------------------------|
|------------------8-8-8--9-9-9------------|
|------------------------------------------|
|------------------------------------------|
|------------------------------------------|  (x4)


Pepe  guitarra2
|--4--|
|--5--|
|--6--|
|--6--|
|--4--|
|--4--| (x2)


Verso (x2)

|---------------------------------7-7--9-9--7-7-7--|
|---7-7-7--9-9-9-----------------------------------|
|------------------8-8-8--9-9-9--------------------|
|--------------------------------------------------|
|--------------------------------------------------|
|--------------------------------------------------|


|--------------------------------------|
|9-9-9--10-10-10--9-9-9--10-10--9-9----|
|--------------------------------------|
|--------------------------------------|
|--------------------------------------|
|--------------------------------------|


|----12-12-12--9-9-9--7-7-7-----------------------|
|--------------------------------9-9-9--10-10--9-9|
|-------------------------------------------------|
|-------------------------------------------------|
|-------------------------------------------------|
|-------------------------------------------------|


La Ultima Parte 12-12-12- (x2)


(Coro) (x2)

Pepe G2

|----------------------------------------------------|
|----------------------------------------------------|
|---9-9-9-9-9------------------6-6-6-6-6---4-4-4-4-4-|
|---9-9-9-9-9---6-6-6-6-6------6-6-6-6-6---4-4-4-4-4-|
|---7-7-7-7-7---6-6-6-6-6------4-4-4-4-4---2-2-2-2-2-|
|---------------4-4-4-4-4----------------------------|

ARtur 1

|---12----12----12----12--------11---11--11--11--------|
|------12----12----12----12--------9----9----9---9-----|
|------------------------------------------------------|
|------------------------------------------------------|
|------------------------------------------------------|
|------------------------------------------------------|


|-12----12----12----12-------------------------------|
|----14----14----14----14-----12---12---12---12------|
|--------------------------------11---11---11---11---|
|----------------------------------------------------|
|----------------------------------------------------|
|----------------------------------------------------|

Verso (x2)

|---------------------------------7-7--9-9--7-7-7--|
|---7-7-7--9-9-9-----------------------------------|
|------------------8-8-8--9-9-9--------------------|
|--------------------------------------------------|
|--------------------------------------------------|
|--------------------------------------------------|


|--------------------------------------|
|9-9-9--10-10-10--9-9-9--10-10--9-9----|
|--------------------------------------|
|--------------------------------------|
|--------------------------------------|
|--------------------------------------|


|----12-12-12--9-9-9--7-7-7-----------------------|
|--------------------------------9-9-9--10-10--9-9|
|-------------------------------------------------|
|-------------------------------------------------|
|-------------------------------------------------|
|-------------------------------------------------|


La Ultima Parte 12-12-12- (x2)


(Coro) (x2)

Pepe G2

|----------------------------------------------------|
|----------------------------------------------------|
|---9-9-9-9-9------------------6-6-6-6-6---4-4-4-4-4-|
|---9-9-9-9-9---6-6-6-6-6------6-6-6-6-6---4-4-4-4-4-|
|---7-7-7-7-7---6-6-6-6-6------4-4-4-4-4---2-2-2-2-2-|
|---------------4-4-4-4-4----------------------------|

ARtur 1

|---12----12----12----12--------11---11--11--11--------|
|------12----12----12----12--------9----9----9---9-----|
|------------------------------------------------------|
|------------------------------------------------------|
|------------------------------------------------------|
|------------------------------------------------------|


|-12----12----12----12-------------------------------|
|----14----14----14----14-----12---12---12---12------|
|--------------------------------11---11---11---11---|
|----------------------------------------------------|
|----------------------------------------------------|
|----------------------------------------------------|

(Solo)

|------------------------------------------------------------|
|---12-(x15)--11-11-11--12-12-12--14-14-14-14-14-14-14-------|
|------------------------------------------------------------|
|------------------------------------------------------------|
|------------------------------------------------------------|
|------------------------------------------------------------| (x1)


|---14---------14--------14--------14--------14----15----|
|------12--12-----12--12----12--12---12--12----12----12--|
|--------------------------------------------------------|
|--------------------------------------------------------|
|--------------------------------------------------------|
|--------------------------------------------------------| (x2)

|---16-16-16--17-17-17--16-16-16--17-17-17--19-------|
|----------------------------------------------------|
|----------------------------------------------------|
|----------------------------------------------------|
|----------------------------------------------------|
|----------------------------------------------------| (x2)

(Coro) (x2)

Pepe G2

|----------------------------------------------------|
|----------------------------------------------------|
|---9-9-9-9-9------------------6-6-6-6-6---4-4-4-4-4-|
|---9-9-9-9-9---6-6-6-6-6------6-6-6-6-6---4-4-4-4-4-|
|---7-7-7-7-7---6-6-6-6-6------4-4-4-4-4---2-2-2-2-2-|
|---------------4-4-4-4-4----------------------------|

ARtur 1

|---12----12----12----12--------11---11--11--11--------|
|------12----12----12----12--------9----9----9---9-----|
|------------------------------------------------------|
|------------------------------------------------------|
|------------------------------------------------------|
|------------------------------------------------------|


|-12----12----12----12-------------------------------|
|----14----14----14----14-----12---12---12---12------|
|--------------------------------11---11---11---11---|
|----------------------------------------------------|
|----------------------------------------------------|
|----------------------------------------------------|


4-El cuello perfecto


Intro

        Bbm                        Db     Ab    Db
eb--2-2-222--0-0-0-2-2-2--------2-2-222--0-0-0-2-2-2---------   |
Bb--3-3-333--2-2-2-3-3-3--------3-3-333--2-2-2-3-3-3---------   |
Gb--4-4-444--4-4-4-4-4-4--------2-2-222--2-2-2-2-2-2---------   |
Db-----------------------------------------------------------   |
Ab-----------------------------------------------------------   |
Eb-----------------------------------------------------------   |
                                                                |= x2
        Gb                        Db       Ab                   |
eb--3-3-333--5-5-5-3-3-3--------2-2-232--0-0-0-000-----------   |
Bb--3-3-333--3-3-3-3-3-3--------3-3-333--2-2-2-222-----------   |
Gb--4-4-444--4-4-4-4-4-4--------2-2-222--2-2-2-222-----------   |
Db-----------------------------------------------------------   |
Ab-----------------------------------------------------------   |
Eb-----------------------------------------------------------   |
                                                               /


Estrofas

        Bbm                        Db
eb--2-2-22x--2-2-2-2-2-2--------2-2-22x--2-2-2-2-2-2------------|
Bb--3-3-33x--3-3-3-3-3-3--------3-3-33x--3-3-3-3-3-3------------|
Gb--4-4-44x--4-4-4-4-4-4--------2-2-22x--2-2-2-2-2-2------------| x2
Db--------------------------------------------------------------|
Ab--------------------------------------------------------------|
Eb--------------------------------------------------------------|

(Esta parte me la inventé... pero pueden improvisar algo en Bbm)
   Ebm              Ab
eb--------------------------------------------------------------|
Bb--7--7--7---7-------------------------------------------------|
Gb----------7---7--7/9--9-7-7/9-99999---------------------------| x2
Db--------------------------------------------------------------|
Ab--------------------------------------------------------------|
Eb--------------------------------------------------------------|

(esto es al final de la última estrofa en vez de lo que está arriba)
  Ebm                    Ab             Ebm                  Ab
eb--14~~~~~17--------------------------14~~~~~~17---------------|
Bb--17b19~~~~---19r17-15-17--15-14-----17b19~~~~~---19r17-15-17-|
Gb--------------------------------------------------------------|
Db--------------------------------------------------------------|
Ab--------------------------------------------------------------|
Eb--------------------------------------------------------------|

Solo
(No lo pude sacar perfecto pero esto es lo que logré)
Se debe usar el efeco wah hasta la parte en que la batería va más rápido

  Gb                     Bbm      Ab
eb--------------------------------------------------------------|
Bb--------------------------------------------------------------|
Gb--9/7--9-9b11--11r9p7--9b11r9p7-----7h9-7h9--7/----0----------|
Db--------------------------------9-----------------------------|
Ab--------------------------------------------------------------|
Eb--------------------------------------------------------------|

  Gb                   Bbm         Ab
eb--------------------------------------------------------------|
Bb--7~~~--------10~~~--12~~~~12-14------------------------------|
Gb--9b11--9/12--12b14--14b16~~~~~~-16r14p12-14~~~~/-------------|
Db--------------------------------------------------------------|
Ab--------------------------------------------------------------|
Eb--------------------------------------------------------------|

  Ebm                                 Bbm
eb---------------------------------------------------------- ...
Bb---------------0h2h3h5~~--5p3p2p0~-------0h2h3h5--0h2h3h5- ...
Gb----------0h2h4---------------------0h2h4----------------- ...
Db-----0h2h4------------------------------------------------ ...
Ab---------------------------------------------------------- ...
Eb---------------------------------------------------------- ...
      Ab
... eb-2-0h2h3-3-0h2h3-5~~-|
... Bb---------------------|
... Gb---------------------|
... Db---------------------|
... Ab---------------------|
... Eb---------------------|

   Ebm                                              Bbm
eb-17-15-14h15p14----14----------------------------------|
Bb----------------17----17-15h17p15-14-15-14-------------|
Gb-------------------------------------------16-14-16-16-|
Db-------------------------------------------------------|
Ab-------------------------------------------------------|
Eb-------------------------------------------------------|

                 Ab
eb-------------14-15-17b19r17t19p17t19p17t19p17--|
Bb----14-15-17-----------------------------------|
Gb-16--------------------------------------------|
Db-----------------------------------------------|
Ab-----------------------------------------------|
Eb-----------------------------------------------|

   Gb
eb-14b15r14---------14b15r14------------------------------------|
Bb----------15-17------------15-17------------------------------|
Gb----------------------------------16~~------------------------|
Db--------------------------------------------------------------|
Ab--------------------------------------------------------------|
Eb--------------------------------------------------------------|

   Bbm              Ab
eb-14b15r14---------17b19r17-15-14h15p14------------------------|
Bb----------15-17------------------------17p15------------------|
Gb--------------------------------------------------------------|
Db--------------------------------------------------------------|
Ab--------------------------------------------------------------|
Eb--------------------------------------------------------------|

   Gbm
eb-14b15r14---------14b15r14------------------------------------|
Bb----------15-17------------15-17------------------------------|
Gb----------------------------------16~~------------------------|
Db--------------------------------------------------------------|
Ab--------------------------------------------------------------|
Eb--------------------------------------------------------------|

   Bbm              Ab
eb-14b15r14-----------------------------------------------------|
Bb----------15-17---14-14-14/15-15/17-17/19-19/-----------------|
Gb--------------------------------------------------------------|
Db--------------------------------------------------------------|
Ab--------------------------------------------------------------|
Eb--------------------------------------------------------------|

   Ebm                               Bbm                Ab
eb---------------------------------------------------------------|
Bb-15p14-----------14-15p14----------15p14-----------------------|
Gb-------14-----14----------14-------------14--------------------|
Db----------16-----------------16~------------16-16-14-16b17r16~-|
Ab---------------------------------------------------------------|
Eb---------------------------------------------------------------|

   Ebm
eb-14b15r14---------14b15r14------------------------------------|
Bb----------15-17------------15-17------------------------------|
Gb----------------------------------16~~------------------------|
Db--------------------------------------------------------------|
Ab--------------------------------------------------------------|
Eb--------------------------------------------------------------|

   Bbm              Ab
eb-14b15r14---------17-17-17/-----------------------------------|
Bb----------15-17-----------------------------------------------|
Gb--------------------------------------------------------------|
Db--------------------------------------------------------------|
Ab--------------------------------------------------------------|
Eb--------------------------------------------------------------|


Y a continuación los acordes sobre la letra de la canción...


**ESTROFAS**
Bbm                        Db
        No me sacio quiero mas estoy muy incorrecto
Bbm                           Db
        alla afuera ya esta oscuro ya llegó el momento
Ebm                     Ab
        Trato de aparentar que soy normal y bueno
Ebm                         Ab
        serlo es lo que mas quiero

Bbm                     Db
        Esta vida no elegí ella me escogio a mi
Bbm                               Db
        me hicieron parte de este clan sin mi consentimiento
Ebm                      Ab
        muy atento ahora busco el cuello perfecto
Ebm                     Db                Gb   Bbm-Ab
        que me de mi alimento


**CORO**
        Bbm             Db
        Mi hambre no tiene final
             Gb           Ab
        me altero mas cuando la veo bloquear
        Bbm           Db
        es de noche y ya me voy
              Gb         Db          Ab       Gb
        la oscuridad me ayuda a saciar mi ambición


**ESTROFAS**
(Esto es solo batería)
        Siempre me visto de negro así camuflajear
        pasar desapercibido antes de atacar
Ebm                       Ab
        Asi como el ser humano ocupa comer
Ebm                          Ab
        lo que ocupo yo es tomar

Bbm                      Db
        Por ahi murmuran que yo peco de avaricia
Bbm                      Db
        que acambio solo doy una simple caricia
Ebm                         Ab
        Que mis ojos son profundos eso no es noticia
Ebm                         Ab
        los colmillos no se quitan


**CORO**
        Bbm             Db
        Mi hambre no tiene final
             Gb           Ab
        me altero mas cuando la veo bloquear
        Bbm           Db
        es de noche y ya me voy
              Gb         Db          Ab       Gb--->
        la oscuridad me ayuda a saciar mi ambición


**SOLO**
-->Gb   Bbm-Gb
Gb      Bbm-Gb
Ebm     Bbm-Gb
Ebm     Bbm-Gb         x2


5-Espíritu pionero

INTRO:Fm C#m - G# - Fm - D# - G# - Fm - D#


 G#       Fm         D#
¿Que paso si ya la tenian armada?
 G#                  Fm            D#
hicieron caso omiso de que no agarraran nada
A#m     D#
y sin embargo lo hicieron
A#m     D#    A#m   D#           C#m
y su tormento solo está por comenzar
G#     Fm         D#
Abigail tuviste que tentarlos
G#                    Fm            D#
no fué suficiente el daño que ya me has causado
A#m      D#              A#m           D#
me arruinaste el momento en un solo intento
A#m      D#             C#m-G#
los expulsé igual que a tí
G#       C#    G#
muy original a-a
               C#            G#
les deje muy claro que esta mal
       C#          D#            C#m
acaban de manchar toda la humanidad

G# - Fm - D# (x2)

G#     Fm       D#
eso es tienen libre albedrio
G#            Fm          D#
todo eso era parte de mi plan divino
A#m       D#           A#m          D#
ahora tendran que tolerar las consecuencias
A#m          D#              C#m-G#
de haber confiado en alguien más
G#       C#    G#
muy original a-a
               C#            G#
les deje muy claro que esta mal
       C#          D#           C#m-G#
acaban de manchar toda la humanidad
G#       C#       G#
muy original que tal
             C#                G#
si puedieran echar el tiempo atrás
     C#         D#        C#m G#
solo puedo yo y no sucederá

6-Solo a terceros

Intro.

E------------------------------------------------|
B------1----1----1----1----1-------1---1---------|
G----1----1---------1----1----1---1---1---1------|
D--3----3----3----2----2----2----1---1---1-------|
A------------------------------------------------|
E------------------------------------------------|

E--------1----1----------------------------------|
B------1---1--1----------------------------------|
G----1--------1----------------------------------|
D--0----------3----------------------------------|
A------------------------------------------------|
E------------------------------------------------|

Verso 1.:.
E------------------------------------------------|
B------------------------------------------------|
G—5~-5-5-5-5-5-5-5-5-5-5-5-5-5-5-----------------|
D—5~-5-5-5-5-5-5-5-5-5-5-5-5-5-5-----------------|
A—3~-3-3-3-3-3-3-3-3-3-3-3-3-3-3-----------------|
E------------------------------------------------|

     * * * * * * * * * * * * * *

E------------------------------------------------|
B---5h6-6----------------------------------------|
G---5-5-5----------------------------------------|
D------------7-7-7-7-7-7--5-5-5-5-5-5-5-5--------|
A------------------------------------------------|
E------------------------------------------------|
             * * * * * *  * * * * * * * *

E------------------------------------------------|
B---5h6-6----------------------------------------|
G---5-5-5----------------------------------------|
D------------7-7-7-7-7-7--2-2-2-2-3-3-3----------|
A------------------------------------------------|
E------------------------------------------------|
             * * * * * *  * * * * * * *

E------------------------------------------------|
B---5h6-6----------------------------------------|
G---5-5-5----------------------------------------|
D------------7-7-7-7-7-7--5-5-5-5-5-5-5-5--------|
A------------------------------------------------|
E------------------------------------------------|
             * * * * * *  * * * * * * * *

E------------------------------------------------|
B---5h6-6----------------------------------------|
G---5-5-5----------------------------------------|
D------------7-7-7-7-7-7--2-2-2-2-3-3-3----------|
A------------------------------------------------|
E------------------------------------------------|
             * * * * * *  * * * * * * *

E------------------------------------------------|
B---5h6-6----------------------------------------|
G---5-5-5----------------------------------------|
D------------7-7-7-7-7-7--5-5-5-5-5-5-5-5--------|
A------------------------------------------------|
E------------------------------------------------|
             * * * * * *  * * * * * * * *

E------------------------------------------------|
B---5h6-6----------------------------------------|
G---5-5-5----------------------------------------|
D------------7-7-7-7-7-7--2-2-2-2-3-3-3----------|
A------------------------------------------------|
E------------------------------------------------|
             * * * * * *  * * * * * * *


E------------------------------------------------|
B---5h6-6----------------------------------------|
G---5-5-5----------------------------------------|
D------------7-7-7-7-7-7--5-5-5-5-5-5-5-5--------|
A------------------------------------------------|
E------------------------------------------------|
             * * * * * *  * * * * * * * *

E------------------------------------------------|
B---5h6-6----------------------------------------|
G---5-5-5-------------------------5-5-5----------|
D------------7-7-7-7-7-7--2-2-2-2-3-3-3----------|
A------------------------------------------------|
E------------------------------------------------|
             * * * * * *  * * * * * * *

E------------------------------------------------|
B--------6-----6----6-----6-----6----------------|
G------7-----7----------5-----5----5-------------|
D----8-----8-----8----7----7-----7---------------|
A------------------------------------------------|
E------------------------------------------------|
     * * * * * * * * * * * * * * * *

E------------------------------------------------|
B-------8------8-----8-------10------8-----------|
G-----9------9-------------9-------9------9------|
D--10-----10-----10-----10------10-----10--------|
A------------------------------------------------|
E------------------------------------------------|
   * * * * * * * * * * * * * * * * * * * *


E------------------------------------------------|
B--------6-----6----6-----6-----6----------------|
G------7-----7----------5-----5----5-------------|
D----8-----8-----8----7----7-----7---------------|
A------------------------------------------------|
E------------------------------------------------|
     * * * * * * * * * * * * * * * *

E------------------------------------------------|
B-------8------8-----8-------10------8-----------|
G-----9------9-------------9-------9------9------|
D--10-----10-----10-----10------10-----10--------|
A------------------------------------------------|
E------------------------------------------------|
   * * * * * * * * * * * * * * * * * * * *

E------------------------------------------------|
B--------6-----6----6-----6-----6----------------|
G------7-----7----------5-----5----5-------------|
D----8-----8-----8----7----7-----7---------------|
A------------------------------------------------|
E------------------------------------------------|
     * * * * * * * * * * * * * * * *

E------------------------------------------------|
B-------8------8-----8-------10------8-----------|
G-----9------9-------------9-------9------9------|
D--10-----10-----10-----10------10-----10--------|
A------------------------------------------------|
E------------------------------------------------|
   * * * * * * * * * * * * * * * * * * * *

E------------------------------------------------|
B--------6-----6----6-----6-----6----------------|
G------7-----7----------5-----5----5-------------|
D----8-----8-----8----7----7-----7---------------|
A------------------------------------------------|
E------------------------------------------------|
     * * * * * * * * * * * * * * * *

E------------------------------------------------|
B-------8------8-----8-------10------8-----------|
G-----9------9-------------9-------9------9------|
D--10-----10-----10-----10------10-----10--------|
A------------------------------------------------|
E------------------------------------------------|
   * * * * * * * * * * * * * * * * * * * *


(CORO)

E-------------------------------------------------|
B-------------------------------------------------|
G---7-7---10-10-----------------------------------|
D---7-7---10-10---8-8---8-8------8----8-----------|
A---5-5---8--8----8-8---8-8------8----8-----------|
E-----------------6-6---6-6------6----6-----------|

E-------------------------------------------------|
B-------------------------------------------------|
G---7-7---10-10-----------------------------------|
D---7-7---10-10---8-8---8-8------8----8-----------|
A---5-5---8--8----8-8---8-8------8----8-----------|
E-----------------6-6---6-6------6----6-----------|
E-------------------------------------------------|
B-------------------------------------------------|
G---7-7---10-10-----------------------------------|
D---7-7---10-10---8-8---8-8------8----8-----------|
A---5-5---8--8----8-8---8-8------8----8-----------|
E-----------------6-6---6-6------6----6-----------|

E-------------------------------------------------|
B-------------------------------------------------|
G---7-7---10-10---9--9----9--9----9--9------------|
D---7-7---10-10---10-10---10-10---10-10-----------|
A---5-5---8--8----7--7----7--7----7—-7------------|
E-------------------------------------------------|

E-------------------------------------------------|
B-------------------------------------------------|
G---7-7---10-10-----------------------------------|
D---7-7---10-10---8-8---8-8------8----8-----------|
A---5-5---8--8----8-8---8-8------8----8-----------|
E-----------------6-6---6-6------6----6-----------|

E-------------------------------------------------|
B-------------------------------------------------|
G---7-7---10-10-----------------------------------|
D---7-7---10-10---8-8---8-8------8----8-----------|
A---5-5---8--8----8-8---8-8------8----8-----------|
E-----------------6-6---6-6------6----6-----------|

E-------------------------------------------------|
B-------------------------------------------------|
G---7-7---10-10-----------------------------------|
D---7-7---10-10---8-8---8-8------8----8-----------|
A---5-5---8--8----8-8---8-8------8----8-----------|
E-----------------6-6---6-6------6----6-----------|

E-------------------------------------------------|
B-------------------------------------------------|
G---7-7---10-10---9--9----9--9----9--9------------|
D---7-7---10-10---10-10---10-10---10-10-----------|
A---5-5---8--8----7--7----7--7----7—-7------------|
E-------------------------------------------------|

Verso 2

E-------------------------------------------------|
B-------------------------------------------------|
G---5-5----5-5---5-5----5-5---5---5---------------|
D---5-5----5-5---5-5----5-5---5---5---------------|
A---3-3----3-3---3-3----3-3---3---3---------------|
E-------------------------------------------------|


E------------------------------------------------|
B---5h6-6----------------------------------------|
G---5-5-5----------------------------------------|
D------------7-7-7-7-7-7--5-5-5-5-5-5-5-5--------|
A------------------------------------------------|
E------------------------------------------------|
             * * * * * *  * * * * * * * *

E------------------------------------------------|
B---5h6-6----------------------------------------|
G---5-5-5----------------------------------------|
D------------7-7-7-7-7-7--2-2-2-2-3-3-3----------|
A------------------------------------------------|
E------------------------------------------------|
             * * * * * *  * * * * * * *

E------------------------------------------------|
B---5h6-6----------------------------------------|
G---5-5-5----------------------------------------|
D------------7-7-7-7-7-7--5-5-5-5-5-5-5-5--------|
A------------------------------------------------|
E------------------------------------------------|
             * * * * * *  * * * * * * * *

E------------------------------------------------|
B---5h6-6----------------------------------------|
G---5-5-5----------------------------------------|
D------------7-7-7-7-7-7--2-2-2-2-3-3-3----------|
A------------------------------------------------|
E------------------------------------------------|
             * * * * * *  * * * * * * *

E------------------------------------------------|
B---5h6-6----------------------------------------|
G---5-5-5----------------------------------------|
D------------7-7-7-7-7-7--5-5-5-5-5-5-5-5--------|
A------------------------------------------------|
E------------------------------------------------|
             * * * * * *  * * * * * * * *

E------------------------------------------------|
B---5h6-6----------------------------------------|
G---5-5-5----------------------------------------|
D------------7-7-7-7-7-7--2-2-2-2-3-3-3----------|
A------------------------------------------------|
E------------------------------------------------|
             * * * * * *  * * * * * * *

E------------------------------------------------|
B---5h6-6----------------------------------------|
G---5-5-5----------------------------------------|
D------------7-7-7-7-7-7--5-5-5-5-5-5-5-5--------|
A------------------------------------------------|
E------------------------------------------------|
             * * * * * *  * * * * * * * *

E------------------------------------------------|
B---5h6-6----------------------------------------|
G---5-5-5----------------------------------------|
D------------7-7-7-7-7-7--2-2-2-2-3-3-3----------|
A------------------------------------------------|
E------------------------------------------------|
             * * * * * *  * * * * * * *
E------------------------------------------------|
B---5h6-6----------------------------------------|
G---5-5-5----------------------------------------|
D------------7-7-7-7-7-7--5-5-5-5-5-5-5-5--------|
A------------------------------------------------|
E------------------------------------------------|
             * * * * * *  * * * * * * * *

E------------------------------------------------|
B---5h6-6----------------------------------------|
G---5-5-5----------------------------------------|
D------------7-7-7-7-7-7--2-2-2-2-3-3-3----------|
A------------------------------------------------|
E------------------------------------------------|
             * * * * * *  * * * * * * *

E------------------------------------------------|
B--------6-----6----6-----6-----6----------------|
G------7-----7----------5-----5----5-------------|
D----8-----8-----8----7----7-----7---------------|
A------------------------------------------------|
E------------------------------------------------|
     * * * * * * * * * * * * * * * *

E------------------------------------------------|
B-------8------8-----8-------10------8-----------|
G-----9------9-------------9-------9------9------|
D--10-----10-----10-----10------10-----10--------|
A------------------------------------------------|
E------------------------------------------------|
   * * * * * * * * * * * * * * * * * * * *


E------------------------------------------------|
B--------6-----6----6-----6-----6----------------|
G------7-----7----------5-----5----5-------------|
D----8-----8-----8----7----7-----7---------------|
A------------------------------------------------|
E------------------------------------------------|
     * * * * * * * * * * * * * * * *

E------------------------------------------------|
B-------8------8-----8-------10------8-----------|
G-----9------9-------------9-------9------9------|
D--10-----10-----10-----10------10-----10--------|
A------------------------------------------------|
E------------------------------------------------|
   * * * * * * * * * * * * * * * * * * * *

E------------------------------------------------|
B--------6-----6----6-----6-----6----------------|
G------7-----7----------5-----5----5-------------|
D----8-----8-----8----7----7-----7---------------|
A------------------------------------------------|
E------------------------------------------------|
     * * * * * * * * * * * * * * * *

E------------------------------------------------|
B-------8------8-----8-------10------8-----------|
G-----9------9-------------9-------9------9------|
D--10-----10-----10-----10------10-----10--------|
A------------------------------------------------|
E------------------------------------------------|
   * * * * * * * * * * * * * * * * * * * *

E------------------------------------------------|
B--------6-----6----6-----6-----6----------------|
G------7-----7----------5-----5----5-------------|
D----8-----8-----8----7----7-----7---------------|
A------------------------------------------------|
E------------------------------------------------|
     * * * * * * * * * * * * * * * *

E------------------------------------------------|
B-------8------8-----8-------10------8-----------|
G-----9------9-------------9-------9------9------|
D--10-----10-----10-----10------10-----10--------|
A------------------------------------------------|
E------------------------------------------------|
   * * * * * * * * * * * * * * * * * * * *

(Coro)


E-------------------------------------------------|
B-------------------------------------------------|
G---7-7---10-10-----------------------------------|
D---7-7---10-10---8-8---8-8------8----8-----------|
A---5-5---8--8----8-8---8-8------8----8-----------|
E-----------------6-6---6-6------6----6-----------|

E-------------------------------------------------|
B-------------------------------------------------|
G---7-7---10-10-----------------------------------|
D---7-7---10-10---8-8---8-8------8----8-----------|
A---5-5---8--8----8-8---8-8------8----8-----------|
E-----------------6-6---6-6------6----6-----------|
E-------------------------------------------------|
B-------------------------------------------------|
G---7-7---10-10-----------------------------------|
D---7-7---10-10---8-8---8-8------8----8-----------|
A---5-5---8--8----8-8---8-8------8----8-----------|
E-----------------6-6---6-6------6----6-----------|

E-------------------------------------------------|
B-------------------------------------------------|
G---7-7---10-10---9--9----9--9----9--9------------|
D---7-7---10-10---10-10---10-10---10-10-----------|
A---5-5---8--8----7--7----7--7----7—-7------------|
E-------------------------------------------------|


E-------------------------------------------------|
B-------------------------------------------------|
G---7-7---10-10-----------------------------------|
D---7-7---10-10---8-8---8-8------8----8-----------|
A---5-5---8--8----8-8---8-8------8----8-----------|
E-----------------6-6---6-6------6----6-----------|

E-------------------------------------------------|
B-------------------------------------------------|
G---7-7---10-10-----------------------------------|
D---7-7---10-10---8-8---8-8------8----8-----------|
A---5-5---8--8----8-8---8-8------8----8-----------|
E-----------------6-6---6-6------6----6-----------|

E-------------------------------------------------|
B-------------------------------------------------|
G---7-7---10-10-----------------------------------|
D---7-7---10-10---8-8---8-8------8----8-----------|
A---5-5---8--8----8-8---8-8------8----8-----------|
E-----------------6-6---6-6------6----6-----------|

E-------------------------------------------------|
B-------------------------------------------------|
G---7-7---10-10---9--9----9--9----9--9------------|
D---7-7---10-10---10-10---10-10---10-10-----------|
A---5-5---8--8----7--7----7--7----7—-7------------|
E-------------------------------------------------|

E-------------------------------------------------|
B-------------------------------------------------|
G---5-5----5-5---5-5----5-5---5---5---------------|
D---5-5----5-5---5-5----5-5---5---5---------------|
A---3-3----3-3---3-3----3-3---3---3---------------|
E-------------------------------------------------|

(Solo)
E--------------------------------------------------|
B-13--13--13---------------------------------------|
G------------12--14---12—-12/5 -10-10-9-9/10—10/12-|
D--------------------------------------------------|
A--------------------------------------------------|
E--------------------------------------------------|

E--------------------------------------------------|
B-13--13--13---------------------------------------|
G------------12--14---12—-12/5 -10-10-9-9/10—10/12-|
D--------------------------------------------------|
A--------------------------------------------------|
E--------------------------------------------------|


E--------------------------------------------------|
B-13--13--13---------------------------------------|
G------------12--14---12—-12/5 -10-10-9-9/10—10/12-|
D--------------------------------------------------|
A--------------------------------------------------|
E--------------------------------------------------|

E--------------------------------------------------|
B-13--13--13---------------------------------------|
G------------12--14---12—-12/5 -10-10-9-9/10—10/12-|
D--------------------------------------------------|
A--------------------------------------------------|
E--------------------------------------------------|

E-------------------------------------------------|
B-------------------------------------------------|
G-15-15-15-15-15-15-15-15-10-10-10-10-10-10-10-10-|
D-------------------------------------------------|
A-------------------------------------------------|
E-------------------------------------------------|

E-------------------------------------------------|
B-------------------------------------------------|
G-9-9-9-9-9-9-9-9--12-12-12--14-14-12-12-12-------|
D-------------------------------------------------|
A-------------------------------------------------|
E-------------------------------------------------|

E-------------------------------------------------|
B-------------------------------------------------|
G--7-7-7-7-7-7-7-7-14-14-14-14-14-14-14--10-10----|
D-------------------------------------------------|
A-------------------------------------------------|
E-------------------------------------------------|

E-------------------------------------------------|
B-------------------------------------------------|
G—-5-5-5-5-5-5-5-5---12-12-12-12-12-12-12-12------|
D-------------------------------------------------|
A-------------------------------------------------|
E-------------------------------------------------|

E--------------------------------------------------|
B--------------------------------------------------|
G--15-15-15-15-15-15-15-15-10-10-10-10-10-10-10-10-|
D--------------------------------------------------|
A--------------------------------------------------|
E--------------------------------------------------|

E-------------------------------------------------|
B-------------------------------------------------|
G--9-9-9-9-9-9-9-9-12-12-12-14-14-14-12-12-12-10--|
D-------------------------------------------------|
A-------------------------------------------------|
E-------------------------------------------------|

E-------------------------------------------------|
B-------------------------------------------------|
G---7-7---10-10-----------------------------------|
D---7-7---10-10---8-8---8-8------8----8-----------|
A---5-5---8--8----8-8---8-8------8----8-----------|
E-----------------6-6---6-6------6----6-----------|

E-------------------------------------------------|
B-------------------------------------------------|
G---7-7---10-10-----------------------------------|
D---7-7---10-10---8-8---8-8------8----8-----------|
A---5-5---8--8----8-8---8-8------8----8-----------|
E-----------------6-6---6-6------6----6-----------|
E-------------------------------------------------|
B-------------------------------------------------|
G---7-7---10-10-----------------------------------|
D---7-7---10-10---8-8---8-8------8----8-----------|
A---5-5---8--8----8-8---8-8------8----8-----------|
E-----------------6-6---6-6------6----6-----------|

E-------------------------------------------------|
B-------------------------------------------------|
G---7-7---10-10---9--9----9--9----9--9------------|
D---7-7---10-10---10-10---10-10---10-10-----------|
A---5-5---8--8----7--7----7--7----7—-7------------|
E-------------------------------------------------|


E-------------------------------------------------|
B-------------------------------------------------|
G---7-7---10-10-----------------------------------|
D---7-7---10-10---8-8---8-8------8----8-----------|
A---5-5---8--8----8-8---8-8------8----8-----------|
E-----------------6-6---6-6------6----6-----------|

E-------------------------------------------------|
B-------------------------------------------------|
G---7-7---10-10-----------------------------------|
D---7-7---10-10---8-8---8-8------8----8-----------|
A---5-5---8--8----8-8---8-8------8----8-----------|
E-----------------6-6---6-6------6----6-----------|

E-------------------------------------------------|
B-------------------------------------------------|
G---7-7---10-10-----------------------------------|
D---7-7---10-10---8-8---8-8------8----8-----------|
A---5-5---8--8----8-8---8-8------8----8-----------|
E-----------------6-6---6-6------6----6-----------|

E-------------------------------------------------|
B-------------------------------------------------|
G---7-7---10-10---9--9----9--9----9--9------------|
D---7-7---10-10---10-10---10-10---10-10-----------|
A---5-5---8--8----7--7----7--7----7—-7------------|
E-------------------------------------------------|


E-------------------------------------------------|
B---5-5----5-5—--5-5----5-5---5---5---------------|
G---5-5----5-5---5-5----5-5---5---5---------------|
D---3-3----3-3---3-3----3-3---3---3---------------|
A-------------------------------------------------|
E-------------------------------------------------|

E------------------------------------------------|
B---5h6-6----------------------------------------|
G---5-5-5----------------------------------------|
D------------7-7-7-7-7-7--5-5-5-5-5-5-5-5--------|
A------------------------------------------------|
E------------------------------------------------|
             * * * * * *  * * * * * * * *

E------------------------------------------------|
B---5h6-6----------------------------------------|
G---5-5-5----------------------------------------|
D------------7-7-7-7-7-7--2-2-2-2-3-3-3----------|
A------------------------------------------------|
E------------------------------------------------|
             * * * * * *  * * * * * * *

E------------------------------------------------|
B---5h6-6----------------------------------------|
G---5-5-5----------------------------------------|
D------------7-7-7-7-7-7--5-5-5-5-5-5-5-5--------|
A------------------------------------------------|
E------------------------------------------------|
             * * * * * *  * * * * * * * *

E------------------------------------------------|
B---5h6-6----------------------------------------|
G---5-5-5----------------------------------------|
D------------7-7-7-7-7-7--2-2-2-2-3-3-3----------|
A------------------------------------------------|
E------------------------------------------------|
             * * * * * *  * * * * * * *

E------------------------------------------------|
B---5h6-6----------------------------------------|
G---5-5-5----------------------------------------|
D------------7-7-7-7-7-7--5-5-5-5-5-5-5-5--------|
A------------------------------------------------|
E------------------------------------------------|
             * * * * * *  * * * * * * * *

E------------------------------------------------|
B---5h6-6----------------------------------------|
G---5-5-5----------------------------------------|
D------------7-7-7-7-7-7--2-2-2-2-3-3-3----------|
A------------------------------------------------|
E------------------------------------------------|
             * * * * * *  * * * * * * *

E------------------------------------------------|
B---5h6-6----------------------------------------|
G---5-5-5----------------------------------------|
D------------7-7-7-7-7-7--5-5-5-5-5-5-5-5--------|
A------------------------------------------------|
E------------------------------------------------|
             * * * * * *  * * * * * * * *

E------------------------------------------------|
B---5h6-6----------------------------------------|
G---5-5-5----------------------------------------|
D------------7-7-7-7-7-7--2-2-2-2-3-3-3----------|
A------------------------------------------------|
E------------------------------------------------|
             * * * * * *  * * * * * * *
E------------------------------------------------|
B---5h6-6----------------------------------------|
G---5-5-5----------------------------------------|
D------------7-7-7-7-7-7--5-5-5-5-5-5-5-5--------|
A------------------------------------------------|
E------------------------------------------------|
             * * * * * *  * * * * * * * *


7-Abigail


[intro]

|-----------------------|
|-----------------------|
|-----------------------|
|-3-3----3-3------3-----|
|-3-3----3-3------3-----|
|-1-1----1-1------1-----|

|--------------|
|--------------|
|-6-6----------|
|-6-6----6-6---|
|-4-4----6-6---|
|--------4-4---|

aki ya es mas rapido
|---------------------|
|---------------------|
|--------6------------|
|-3------6-x8--6------|x 2
|-3-x16--4-----6-x8---|
|-1------------4------|

verso 1
Abigail, divina trinidad
Abigail, princesa cruel
Vienes en tiempos de confusión
Oh, gran impostora escúchame
|----------------------------------|
|----------------------------------|
|-------------------8--6-----------|
|-3-3----3-3-3------8--6----6-6-6--|
|-3-3----3-3-3------6--4----6-6-6--|
|-1-1----1-1-1--------------4-4-4--|


No es mejor difamacion
Vas a traicionar
A tu público con mentiras y
Calumnias de utilidad..
|----------------------|
|----------------------|
|-6------------8-------|
|-6-x16--3-x8--8-x8----|
|-4------3-----6-------|
|--------1-------------|

-se repite el intro-


|---------------------|
|---------------------|
|--------6------------|
|-3------6-x8--6------|x 2
|-3-x16--4-----6-x8---|
|-1------------4------|

verso 2
Lider mundial,pudieses ser, lo sabes,
Control total pretendes
|----------------------------------|
|----------------------------------|
|-------------------8--6-----------|
|-3-3----3-3-3------8--6----6-6-6--|
|-3-3----3-3-3------6--4----6-6-6--|
|-1-1----1-1-1--------------4-4-4--|

¿Serás real,serás ficción?, ¿cuál es tu versión?
Brillante y atractiva, una pose distintiva
Tu cualidad es la persuasión, a nivel mayor
El mundo en espera, de una falsa proteccion
|----------------------|
|----------------------|
|-6------------8-------|
|-6-x16--3-x8--8-x8----|
|-4------3-----6-------|
|--------1-------------|

(se mantiene hasta el arpegio)
|----|
|----|
|-6--|
|-6--|
|-4--|
|----|
arpegio antes del solo
|-----------------------------------------------------|
|-----------------------------------------------------|
|-------10----------10------------11-----------11-----|
|----10----10-----10---10------11----11-----11----11--|
|--8------------8------------8------------8-----------|
|-----------------------------------------------------|

se los debo[solo]

(se dejan sonando las cuerdas,esto es durante el solo)
|-------------------------------|
|-------------------------------|
|------------------6-6----------|
|-3-3----3-3-3-----6-6----6-6-6-|x2
|-3-3----3-3-3-----4-4----6-6-6-|
|-1-1----1-1-1------------4-4-4-|

Mismo fuego que... calienta
Mismo fuego que.. te quema, te quema
(igual pero sin dejar sonar las cuerdas xD)
|-------------------------------|
|-------------------------------|
|------------------6-6----------|
|-3-3----3-3-3-----6-6----6-6-6-|x2
|-3-3----3-3-3-----4-4----6-6-6-|
|-1-1----1-1-1------------4-4-4-|

Mismo fuego que... calienta
Mismo fuego que... te quema, te quema
|---------------------|
|---------------------|
|--------6------------|
|-3------6-x8--6------|x 2
|-3-x16--4-----6-x8---|
|-1------------4------|

¿Serás real,serás ficción?, ¿cuál es tu versión?
Brillante y atractiva, una pose distintiva
Tu cualidad es la persuasión, a nivel mayor
Tu público en espera de, solo un falso salvador
|----------------------|
|----------------------|
|-6------------8-------|
|-6-x16--3-x8--8-x8----|
|-4------3-----6-------|
|--------1-------------|


[termina arpegiando Fa en el octavo traste]
|-----|
|-----|
|-10--|
|-10--|
|-8---|
|-----|

|------------------------------|
|------------------------------|
|-------10----------10-10------|
|----10----10-----10---10------|
|--8------------8--------------|
|------------------------------|

8-Casi nula autoestima


Intro
  C#
e--------------------------------------|
B--------------------------------------|
G-10-10-10-13-13-13-10-10-10-----------|
D----------------------------13-11-11--|
A--------------------------------------|
E--------------------------------------|

Bbm
 --------------------------------------|
 ---------13-13-13---------------------|
 10-10-10----------10-10-10------------|
 ---------------------------13-11-11---|
 --------------------------------------|
 --------------------------------------|

  F#
e-------------------------------------|
B-------------------------------------|
G-10-10-10-13-13-13-10-10-10----------|
D----------------------------13-11-11-|
A-------------------------------------|
E-------------------------------------|

G#
 --------------------------------------|
 --------------------------------------|
 10-11-10-------10-11-10---------------|
 ---------13-11----------13-11-13h11-13|
 --------------------------------------|
 --------------------------------------|

 C#                          Bbm
Que se siente verlos caminar justo enfrente
     F#                     G#
excelencia corporal, inteligencia cultural
         C#                       Bbm
te duele admitirlo, ese niño te saca de quicio
        F#                    G#
ya no puedes controlar el querer ser alguien mas

Intro x1

C#                            Bbm
esos celos ese rencor y ese resentimiento
      F#                     G#
hacia el que es mejor, te hace sentir menor
          C#                           Bbm
sera el estilo ajeno de vivir de cada uno de ellos
    F#                   G#
o acaso el infeliz autoestima que hay en ti
C#                  Bbm
 tu tienes una solución
                       F#
quieres causar admiración
                    G#
auto llenarte de honor
C#                        Bbm
 tu tienes algo que nadie mas
                     F#
y no es facil de lograr
                        G#
tu indiferencia a la moral
   C#                        Bbm
estoy seguro que te he perdido una vez
        F#                      G#
te atreviste a sonreir al ver a alguien mas sufrir
C#                              Bbm
cosas buenas es que nunca se te cumplirán
          F#                 G#
no es correcto el desear el mal a alguien mas
C#                       Bbm
  yo lo entiendo injusto es
                     F#
es muy dificil de creer
                    G#
eso no cabe en el ayer
C#                   Bbm
  la excelencia corporal
                   F#
inteligencia cultural
                   G#
no se logra con solo estirar el brazo
C#                     Bbm
no soy competente para ti
                             F#                   G#
quiero saber que es lo que tiene el que no tenga yo
          C#                    Bbm
ven dime que no soy idoneo para ti
                     F#                      G#
y asi considerar cambiarme de cuerpo y de humor
C#                     Bbm
no soy competente para ti
                            F#                    G#
quiero saber que es lo que tiene el que no tenga yo
          C#                    Bbm
ven dime que no soy idoneo para ti
                      F#                   G#                      C# Bbm
y asi considerar cambiarme de cuerpo, de cuerpo, de cuerpo y de humor
       F#                  G#                      C#
cosiderar y cambiarme de cuerpo, de cuerpo y de humor
                  Bbm
de cuerpo y de humor
                  F#
de cuerpo y de humor

                   G#               C#
pues yo quiero ser el yo quiero ser el

9-Del rapto y otros pormenores

intro
|------------------------------------|
|------------------------------------|
|------------------------------------|
|-------11-9-8------8/9/8------8-9-11|
|-6/9-9--------11-9-------11-9-------|
|------------------------------------|x2

verso (no importa...)
|----------------------------------------------|
|----------------------------------------------|
|----------------------------------111111111111|
|-999999-111111111111-131313131313-111111111111|
|-999999-111111111111-131313131313--9-9-9-9-9-9|
|-777777--9-9-9-9-9-9-111111111111-------------|x2

verso 2 (ya no importa...)
|------------------------------------|
|------------------------------------|
|-------------------------11-11-11-11|
|-9--9---11--11---13--13--11-11-11-11|
|-9--9---11--11---13--13---9--9--9--9|
|-7--7----9---9---11--11-------------|x2

coro (bamos a hacer...)
|----------------------------------|------------------------------------|
|----------------------------------|------------------------------------|
|-111111111111---------------------|--------------------------1111111111|
|-111111111111-888888-999999999999-|-141414141414141414141414-1111111111|
|--9-9-9-9-9-9-888888-999999999999-|-141414141414141414141414--9-9-9-9-9|
|--------------666666-777777777777-|-121212121212121212121212-----------|x2

|------------------------------------|
|------------------------------------|
|------------------------------------|
|-------11-9-8------8/9/8------8-9-11|
|-6/9-9--------11-9-------11-9-------|
|------------------------------------|x2

verso (no importa...)
|----------------------------------------------|
|----------------------------------------------|
|----------------------------------111111111111|
|-999999-111111111111-131313131313-111111111111|
|-999999-111111111111-131313131313--9-9-9-9-9-9|
|-777777--9-9-9-9-9-9-111111111111-------------|x2

verso 2 (ya no importa...)
|------------------------------------|
|------------------------------------|
|-------------------------11-11-11-11|
|-9--9---11--11---13--13--11-11-11-11|
|-9--9---11--11---13--13---9--9--9--9|
|-7--7----9---9---11--11-------------|x2

coro (bamos a hacer...)
|----------------------------------|------------------------------------|
|----------------------------------|------------------------------------|
|-111111111111---------------------|--------------------------1111111111|
|-111111111111-888888-999999999999-|-141414141414141414141414-1111111111|
|--9-9-9-9-9-9-888888-999999999999-|-141414141414141414141414--9-9-9-9-9|
|--------------666666-777777777777-|-121212121212121212121212-----------|x2

outro
|------------------------------------|
|------------------------------------|
|------------------------------------|
|-------11-9-8------8/9/8------8-9-11|
|-6/9-9--------11-9-------11-9-------|
|------------------------------------|x2

10-Nuestra aflicción

  cuanto,cuanto se necesita, para ya resolver, destruir este dilema
d#|--0~-----------------4~----------------4~--------------------5~--|
A#|--0~-----------------4~----------------5~--------------------5~--|
F#|--1~-----------------4~----------------6~--------------------6~--|
C#|--2~-----------------6~----------------6~--------------------7~--|
G#|--2~-----------------6~----------------4~--------------------7~--|
D#|--0~-----------------4~--------------------------------------5~--|

   que me tortura en las noches, no me deja soñar, amplifica mis temores
d#-----------------------2~------------------2~--------------------2~---|
A#-----------------------2~------------------4~--------------------2~---|
F#-----------------------2~------------------4~--------------------2~---|
C#-----------------------4~------------------4~--------------------4~---|
G#-----------------------4~------------------2~--------------------4~---|
D#------------4----------2~----------------------------------------2~---|

    simplocabal... aaal
d#----------5~-------7~-|
A#----------5~-------7~-|
F#----------6~-------8~-|
C#----------7~-------9~-|
G#----------7~-------9~-|
D#----------5~-------7~-|


  me encerre y acabe con mis sueños y la llave arroge para que los necesito
d#|0~------------------------4~------------------4~--------------------5~
A#|0~------------------------4~------------------5~--------------------5~
F#|1~------------------------4~------------------6~--------------------6~
C#|2~------------------------6~------------------6~--------------------7~
G#|2~------------------------6~------------------4~--------------------7~
D#|0~------------------------4~----------------------------------------5~

   solo me causara angustia, me hace falta un plan, me hace falta astusia
d#--------------------2~---------------------2~---------------------2~---|
A#--------------------2~---------------------4~---------------------2~---|
F#--------------------2~---------------------4~---------------------2~---|
C#--------------------4~---------------------4~---------------------4~---|
G#--------------------4~---------------------2~---------------------4~---|
D#---------4----------2~--------------------------------------------2~---|

   y paz mental... aaal
d#----------5~-------7~-|
A#----------5~-------7~-|
F#----------6~-------8~-|
C#----------7~-------9~-|
G#----------7~-------9~-|
D#----------5~-------7~-|

   entiendo el rechazo del mundo, tu repudio amor pues iwal si me conociera
d#|--0000000000000000000000444444444444444444444444444444444444444444455555
A#|--0000000000000000000000444444444444444444555555555555555555555555555555
F#|--1111111111111111111111444444444444444444666666666666666666666666666666
C#|--2222222222222222222222666666666666666666666666666666666666666666677777
G#|--2222222222222222222222666666666666666666444444444444444444444444477777
D#|--0000000000000000000000444444444444444444-------------------------55555

  tal vez voltearia mi cara talvez sentiria lastima dicen q el amor mancha
d#555555555554444444444222222222222222222222222222222222222222222222222222
A#555555555554444444444222222222222222222222444444444444444444444444222222
F#666666666664444444444222222222222222222222444444444444444444444444222222
C#777777777776666666666444444444444444444444444444444444444444444444444444
G#777777777776666666666444444444444444444444222222222222222222222222444444
D#555555555554444444444222222222222222222222------------------------222222

  y ya me ensucie... eeeh
d#2222222222225555555557-7-7-7|
A#2222222222225555555557-7-7-7|
F#2222222222226666666668-8-8-8|
C#4444444444447777777779-9-9-9|
G#4444444444447777777779-9-9-9|
D#2222222222225555555557-7-7-7|

CORO
    parece si parece oh no no, que lo mucho que ofresco, no ofreci tanto
d#----------------------------------------------------------------------|
A#----------------------------------------------------------------------|
F#----------------------------------------------------------------------|
C#----2---------6------------6------------------------------------------|
G#----2---------6------------4-------------------7--------------4-------|
D#----0---------4--------------------------------5-------5--5------7--5-|
                            P.M.                P.M.    SOLO PRIMER CORO
y por eso, po or eso me afronte y dejare de ser una carga
----------------------------------------------------------|
----------------------------------------------------------|
----------------------------------------------------------|
------2----------6------------6---------------------------|
------2----------6------------4---------------------7-----|
--4---0----------4----------------------------------5-----|
                             P.M.                  P.M.

pues yo ya no awanto mas farzas, no lo puedo evitar
               G#5       F#5                   B5
sentir que muere mi flama cuando no estas... aaas
                    F#5               A5       B5
y asi cierro un ciclo amor, necesito un favor
   E5                  G#5              C#5 pm
un poco mas de medicina, pues nunca entendi la manera
                   A5 PM                G#5    F#5
para poder evitar sentir que me rompes las piernas
            B5                             F#5
cuando no estas... aaas
             A5      B5

 y me haria feliz que mi cantar te haga
-5------------7-------------4------2----|
-5------------7-------------5------4----|
-6------------8-------------6------4----|
-7------------9-------------6------4----|
-7------------9-------------4------2----|
-5------------7-------------------------|

  sentir muy especial que mi cantar te pueda
-----5-----------7--------------4------2----|
-----5-----------7--------------5------4----|
-----6-----------8--------------6------4----|
-----7-----------9--------------6------4----|
-----7-----------9--------------4------2----|
-----5-----------7--------------------------|

 dar placer y asi juntos envejecer mas no podre aserte feliz
--------2------------------4-----------------------5---7---5-|
--------2------------------4-----------------------5---7---5-|
--------2------------------4-----------------------6---8---6-|
--------4------------------6-----------------------7---9---7-|
--------4------------------6-----------------------7---9---7-|
--------2------------------4-----------------------5---7---5-|

 ya decidi partir
----7---------0--------4---4---5---|
----7---------0--------4---5---5---|
----8---------1--------4---6---6---|
----9---------2--------6---6---7---|
----9---------2--------6---4---7---|
----7---------0--------4-------5---|

 vamos a continuaar con alegria y felicidad
-------4------2---------------------2-------|
-------4------2---------------------4-------|
-------4------2---------------------4-------|
-------6------4---------------------4-------|
-------6------4---------------------2-------|
-------4------2-----------------------------|

 vamos a continuaar nuestra afliccion
--------------2-----------------5------|
--------------2-----------------5------|
--------------2-----------------6------|
--------------4-----------------7------|
--------------4-----------------7------|
--------------2-----------------5------|

 nuestra afliccion...
-7------------0~-----|
-7------------0~-----|
-8------------1~-----|
-9------------2~-----|
-9------------2~-----|
-7------------0~-----|


DEDICADO A RUFO , RICHI, POLLO Y EL DAVID !!!! succkers !!!
Tap to rate this tab
# A B C D E F G H I J K L M N O P Q R S T U V W X Y Z