Song name
# A B C D E F G H I J K L M N O P Q R S T U V W X Y Z

Panda - Del Rapto Y Otros Pormenores tab

PUES AKI ESTA LA CORRECCION DE ESTA CANCION
ESTA SUSCRIPCION 99.99% BIEN.
 
Tono: Standard

G1: guitarra de arturo
G2: guitarra de pp

h: Armonico

Intro:
G1
e|-----------------------------------|
B|-----------------------------------|
G|-----6--4--3b--1---3h--1---3--4--6-|
D|-1/4-------------4-------4---------|
A|-----------------------------------|
E|-----------------------------------|

e|----------------------------------|
B|----------------------------------|
G|---6--4--3~--1---3~--1---3--4--6~~|
D|-4-------------4-------4----------|
A|----------------------------------|
E|----------------------------------|

0:15
G1
G|-6~~~~~~~~--|

G2
e|---------------------------------|
B|---------------------------------|
G|---------------------------------|x2
D|-4-4-4--6-6-6-8-8-8-11-11-11-11--|
A|-2-2-2--4-4-4-6-6-6-9--9--9--9---|
E|---------------------------------|
 pm................................

G1 y G2
0:27
e|-----------------------------------|
B|-----------------------------------|
G|-4--4-4--6--6-6--8--8-8--11--11-11-|
D|-4--4-4--6--6-6--8--8-8--11--11-11-|x2
A|-2--2-2--4--4-4--6--6-6--9---9--9--|
E|-----------------------------------|

0:40
CORO

G1 y G2
e|------------------------------------------------|
B|------------------------------------------------|
G|--------------4-4--4-4-4-8-8--8-8-8--6-6--6-6-6-|
D|-4-4-4--8-8-8-4-4--4-4-4-8-8--8-8-8--6-6--6-6-6-|x2
A|-4-4-4--8-8-8-2-2--2-2-2-6-6--6-6-6--4-4--4-4-4-|
E|-2-2-2--6-6-6-----------------------------------|

1:05
Se repite intro

G1
e|-----------------------------------|
B|-----------------------------------|
G|-----6--4--3b--1---3h--1---3--4--6-|
D|-1/4-------------4-------4---------|
A|-----------------------------------|
E|-----------------------------------|

e|---------------------------------|
B|---------------------------------|
G|---6--4--3~--1---3~--1---3--4--6\\|
D|-4-------------4-------4---------|
A|---------------------------------|
E|---------------------------------|

1:18
G1
Aquí necesitan enkontrar la forma para acerlo:
e|------------------------------------------------------|
B|------------------------------------------------------|
G|-4-4---4-4----6-6---6-6---8-8---8-8---11-----11-11-11\\|
D|----4-4---4-4----6-6---6-6---8-8---8-8--11-11---------|
A|------------------------------------------------------|
E|------------------------------------------------------|
pm.......................................................

1:30

G2                  
e|------------------|----------------|
B|------------------|----------------|
G|-4--4-6--6-6-8----|-4--4-6--6-6-8~-|
D|-4--4-6--6-6-8--4-|-4--4-6--6-6-8~-|
A|-2--2-4--4-4-6--4-|-2--2-4--4-4-6~-|
E|----------------2-|----------------|

(1:39)(Armonico que hace arturo)
G|-4h~-|

Se repite coro

G1 y G2
e|------------------------------------------------|
B|------------------------------------------------|
G|--------------4-4--4-4-4-8-8--8-8-8--6-6--6-6-6-|
D|-4-4-4--8-8-8-4-4--4-4-4-8-8--8-8-8--6-6--6-6-6-|
A|-4-4-4--8-8-8-2-2--2-2-2-6-6--6-6-6--4-4--4-4-4-|
E|-2-2-2--6-6-6-----------------------------------|

(cambio de ritmo)
e|--------------------------------------------|
B|--------------------------------------------|
G|--------------4-4-4-4-4-8-8-8-8-8-6-6-6-6-6-|
D|-4-4-4--8-8-8-4-4-4-4-4-8-8-8-8-8-6-6-6-6-6-|
A|-4-4-4--8-8-8-2-2-2-2-2-6-6-6-6-6-4-4-4-4-4-|
E|-2-2-2--6-6-6-------------------------------|

Se repito intro
                                     ___
G1                                      |
e|-----------------------------------|  |
B|-----------------------------------|  |
G|-----6--4--3b--1---3h--1---3--4--6-|  |
D|-1/4-------------4-------4---------|  |
A|-----------------------------------|  |
E|-----------------------------------|  |
                                        | X2
e|----------------------------------|   |
B|----------------------------------|   | 
G|---6--4--3~--1---3~--1---3--4--6--|   |
D|-4-------------4-------4----------|   | 
A|----------------------------------|   |
E|----------------------------------|   |
                                     ___|
Tap to rate this tab
 
# A B C D E F G H I J K L M N O P Q R S T U V W X Y Z