Song name
# A B C D E F G H I J K L M N O P Q R S T U V W X Y Z

Panda - Pathetica tab

Autor: Panda
Canción: Pathetica
Álbum: Amantes Sunt Amentes
Afinación: EADGBE


( )= Palm mute
 ~ = vibrato
 / = Slide


INTRO

Guitarra 1

E|------11-10-8--------11-11/13-11-10----|2-|
B|--8-9---------11--8-9---------------------|v
G|------------------------------------------|e
D|------------------------------------------|c
A|------------------------------------------|e
E|------------------------------------------|s


(00:19)
E|----------------------------15-------15-------15-11-8-11/13--------|
B|------11------11------11-13----11-13----11-13----------------15-11-|
G|-8-10----8-10----8-10----------------------------------------------|
D|-------------------------------------------------------------------|
A|-------------------------------------------------------------------|
E|-------------------------------------------------------------------|

(00:26)
E|----------------------------15-------15--------------------------------|
B|------11------11------11-13----11-13----11-13-11-8---------------------|
G|-8-10----8-10----8-10------------------------------8--10/12--10-8~-----|
D|-----------------------------------------------------------------------|
A|-----------------------------------------------------------------------|
E|-------------------------------------------------------------------7---|

INTRO

Guitarra 2

E|----------------------------------------------|2-|
B|-------------------------------------------------|v
G|-55555555----------88888888----------------------|e
D|-55555555-66666666-88888888-88888888-------------|c
A|-33333333-66666666-66666666-88888888-------------|e
E|----------44444444----------66666666-------------|s


(00:19)
E|------------------------------------------------------------|2-|
B|---------------------------------------------------------------|v
G|(5)(5)(5)(5)5---------------(8)(8)(8)(8)8----------------------|e
D|(5)(5)(5)(5)5-(6)(6)(6)(6)6-(8)(8)(8)(8)8-(8)(8)(8)(8)8--------|c
A|(3)(3)(3)(3)3-(6)(6)(6)(6)6-(6)(6)(6)(6)6-(8)(8)(8)(8)8--------|e
E|--------------(4)(4)(4)(4)4---------------(6)(6)(6)(6)6--------|s


PRECORO

(00:44)
 …Y se que ya te cansaste de conocer…………
E|---------------------------------------------------------------|
A|---------------------------------------------------------------|
G|-55(5)(5)(5)(5)(5)(5)(5)(5)(5)(5)(5)(5)(5)(5)(5)(5)(5)(5)(5)---|
D|-55(5)(5)(5)(5)(5)(5)(5)(5)(5)(5)(5)(5)(5)(5)(5)(5)(5)(5)(5)---|
A|-33(3)(3)(3)(3)(3)(3)(3)(3)(3)(3)(3)(3)(3)(3)(3)(3)(3)(3)(3)---|
E|---------------------------------------------------------------|

(00:57)
…Quizá nunca pasara, quizá siempre será igual…
E|-----------------------------------------------|
B|-----------------------------------------------|
G|-55--------------------------------------------|
D|-55-----------88---------------------66--------|
A|-33-----------88---------------------66--------|
E|--------------66---------------------44--------|

(01:05)
…Sugiero no ilusionaaaaaar……
E|-----------------------------------------------|
B|-----------------------------------------------|
G|-----------------------------------------------|
D|---------------44----10--8--6------------------|
A|---------------44----10--8--6------------------|
E|---------------66-----8--6--4------------------|

CORO

Guitarra 1

(01:10)
  Recuerda que te veías perfecta y todo cuides que
E|------11-10-8--------11-11/13-11-10-----------|
B|--8-9---------11--8-9-------------------------|
G|----------------------------------------------|
D|----------------------------------------------|
A|----------------------------------------------|
E|----------------------------------------------|

(01:17)
  Después lamentaras de no ser la correcta
E|------11-10-8--------11-11/13-11-10----------|
B|--8-9---------11--8-9------------------------|
G|---------------------------------------------|
D|---------------------------------------------|
A|---------------------------------------------|
E|---------------------------------------------|


(01:22)
  Recuerda que a ti te gusta ser manipulada
E|------11-10-8--------11-11/13-11-10--------|
B|--8-9---------11--8-9----------------------|
G|-------------------------------------------|
D|-------------------------------------------|
A|-------------------------------------------|
E|-------------------------------------------|

(01:30)
  Y también decías muy fuerte que ya sea mañana
E|------11-10-8--------11-11/13-11-10----------|
B|--8-9---------11--8-9------------------------|
G|---------------------------------------------|
D|---------------------------------------------|
A|---------------------------------------------|
E|---------------------------------------------|

CORO

Guitarra 2


(01:10)
  Recuerda que te veías perfecta y todo cuides que
E|----------------------------------------------|
B|----------------------------------------------|
G|-55555555----------88888888-------------------|
D|-55555555-66666666-88888888-88888888----------|
A|-33333333-66666666-66666666-88888888----------|
E|----------44444444----------66666666----------|


(01:17)
  Después lamentaras de no ser la correcta
E|----------------------------------------------|
B|----------------------------------------------|
G|-55555555----------88888888-------------------|
D|-55555555-66666666-88888888-88888888----------|
A|-33333333-66666666-66666666-88888888----------|
E|----------44444444----------66666666----------|

(01:22)
  Recuerda que a ti te gusta ser manipulada
E|----------------------------------------------|
B|----------------------------------------------|
G|-55555555----------88888888-------------------|
D|-55555555-66666666-88888888-88888888----------|
A|-33333333-66666666-66666666-88888888----------|
E|----------44444444----------66666666----------|


(01:30)
  Y también decías muy fuerte que ya sea mañana
E|----------------------------------------------|
B|----------------------------------------------|
G|-55555555----------88888888-------------------|
D|-55555555-66666666-88888888-88888888----------|
A|-33333333-66666666-66666666-88888888----------|
E|----------44444444----------66666666----------|



PRECORO 2

(01:55)
Ya se que como princesa te quieres ver y todo para que al
E|----------------------------------------------------------------|
B|----------------------------------------------------------------|
G|(5)(5)(5)(5)(5)(5)(5)(5)(5)-------------------------------------|
D|(5)(5)(5)(5)(5)(5)(5)(5)(5)(6)(6)(6)(6)(6)(6)(6)(6)(6)(6)(6)(6)-|
A|(3)(3)(3)(3)(3)(3)(3)(3)(3)(6)(6)(6)(6)(6)(6)(6)(6)(6)(6)(6)(6)-|
E|---------------------------(4)(4)(4)(4)(4)(4)(4)(4)(4)(4)(4)(4)-|


(02:00)
 final después no encuentres castillo en ningún lugar
|-----------------------------------------------------------|
|-----------------------------------------------------------|
|-(8)(8)(8)(8)(8)(8)(8)(8)(8)(8)(8)(8)----------------------|
|-(8)(8)(8)(8)(8)(8)(8)(8)(8)(8)(8)(8)(8)(8)(8)(8)(8)(8)(8)-|
|-(6)(6)(6)(6)(6)(6)(6)(6)(6)(6)(6)(6)(8)(8)(8)(8)(8)(8)(8)-|
|-------------------------------------(6)(6)(6)(6)(6)(6)(6)-|


(02:08)
    Quiza pueda yo estar mal, quiza esto sea verdad
E|-----------------------------------------------------------|
B|-----------------------------------------------------------|
G|-55--------------------------------------------------------|
D|-55---------------------88-----------------------66--------|
A|-33---------------------88-----------------------66--------|
E|------------------------66-----------------------44--------|

(02:13)
 Sugiero no descartaaaaaaaar……
E|-----------------------------------------|
B|-----------------------------------------|
G|-----------------------------------------|
D|---------------8-----------10-10-6-------|
A|---------------8-----------10-10-6-------|
E|---------------6------------8—8--4-------|

Luego sigue:

CORO x1

Y luego:

(2:45)
|------------------------------------------------|
|------------------------------------------------|
|-------------5----------------------------------|
|--6-----8----5--6--8----------------------------|
|--6-----8----3--6--8----------------------------|
|--4-----6-------4--6----------------------------|

(02:58)
Guitarra 1

|-------------------------------------------------------|2-|
|----------------------------------------------------------|v
|-5~-7-8--7-5-7~-8-10--8-7--5~-7-8--7-5-7~-8-10~~----------|e
|----------------------------------------------------------|c
|----------------------------------------------------------|e
|----------------------------------------------------------|s
(02:58)
Guitarra 2

|-------------------------------------------------------------------|
|-------------------------------------------------------------------|
|----------------------------------55555555555555-------------------|
|-6666666666666666-888888888888888-55555555555555-66666666-88888888-|
|-6666666666666666-888888888888888-33333333333333-66666666-88888888-|
|-4444444444444444-666666666666666----------------44444444-66666666-|

Talvez ya te cansaste de esperar todas las noches vestida igual a ese hombre tan especial
|---------------------------------------------------------------------------------------|
|---------------------------------------------------------------------------------------|
|------------------------------------------------(5)(5)(5)(5)---------------------------|
|-(6)(6)(6)(6)(6)(6)(6)-(8)(8)(8)(8)(8)(8)(8)(8)-(5)(5)(5)(5)-(6)(6)(6)-(8)(8)-666-4----|
|-(6)(6)(6)(6)(6)(6)(6)-(8)(8)(8)(8)(8)(8)(8)(8)-(3)(3)(3)(3)-(6)(6)(6)-(8)(8)-666-4----|
|-(4)(4)(4)(4)(4)(4)(4)-(6)(6)(6)(6)(6)(6)(6)(6)--------------(4)(4)(4)-(6)(6)-444-6----|


Luego sigue:

Coro x1

Luego esto

(03:48)|MUY RAPIDO y VARIAS VECES
|----------------------------------------------------------------|
|-------8-8-9-8-8-9-9-8-8-9-8-8-9-8-9-8-8-9----------------------|
|----------------------------------------------------------------|
|----------------------------------------------------------------|
|----------------------------------------------------------------|
|----------------------------------------------------------------|

(03:55)
|-11-13-11-13-11-13-11-13-11-13-11-13-11-13-11-13-11-13-11-13-11-13-11-13-11-13-11-13-11-13-11-13|
|------------------------------------------------------------------------------------------------|
|------------------------------------------------------------------------------------------------|
|------------------------------------------------------------------------------------------------|
|------------------------------------------------------------------------------------------------|
|------------------------------------------------------------------------------------------------|

Y por fin… esto es un poco complicado, solo busquen el tiempo en el que se hace
(04:01)
E|----12r14—12h14—12rh14--14—16-16---14-16—17-16-14-|
B|----12----12-----12-----12—12-12------------------|
G|--------------------------------------------------|
D|--------------------------------------------------|
A|--------------------------------------------------|
E|--------------------------------------------------|

Y se va disminuyendo el sonido

Dudas a danielslash@live.com
 Bueno los dejo
Tap to rate this tab
 
# A B C D E F G H I J K L M N O P Q R S T U V W X Y Z