Song name
# A B C D E F G H I J K L M N O P Q R S T U V W X Y Z

Panda - Que Tu Cama Sea Mi Hogar tab

Tono estandard

G1=Artur
G2=PP

G1
0:02
e|-14--14--14--14--13--13--13--11--11--11--11--9--9---|
B|---16--16--16--16--14--14--14--11--11--11--11--9--9-|
G|----------------------------------------------------|
D|----------------------------------------------------|
A|----------------------------------------------------|
E|----------------------------------------------------|

G1
0:02
e|------------------------------------------------------|
B|------------------------------------------------------|
G|-8-8-8---8-8-8----6-6-6-6-6---8-8-8--8-8-8----6--6--6-|
D|-8-8-8---8-8-8----6-6-6-6-6---8-8-8--8-8-8----6--6--6-|
A|-6-6-6---6-6-6----4-4-4-4-4---6-6-6--6-6-6----4--4--4-|
E|------------------------------------------------------|

es todo el intro
Tap to rate this tab
 
# A B C D E F G H I J K L M N O P Q R S T U V W X Y Z