Song name
# A B C D E F G H I J K L M N O P Q R S T U V W X Y Z

Panda - Adheridos Separados tab

PXNDX---ADHERIDOS SEPARADOS / POETICS (acto2/track2)

intro
|-----------------|-----------------|-------------------------|-7875|
|-----------------|-----------------|---9--9--9--9--9--9--9--9|-----|
|------------7875-|------------7875-|-88-88-88-88-88-88-88-88-|-----|
|-5/88888888------|-5/88888888------|-------------------------|-----|
|-----------------|-----------------|-------------------------|-----|
|-----------------|-----------------|-------------------------|-----|

verso (acaso no...)
no se toca nada

(pense que habia...)
|-----------------------------|
|-----------------------------|
|-999999-101010101010---------|
|-999999-101010101010-66666666|
|-777777--8-8-8-8-8-8-66666666|
|---------------------44444444|x8

coro (yo prometo cantar...)
|---------------------------------|
|---------------------------------|
|--------------111111111111-999999|
|-121212121212-111111111111-999999|
|-121212121212--9-9-9-9-9-9-777777|
|-101010101010--------------------|x8

|-----------------|-----------------|-------------------------|-7875|
|-----------------|-----------------|---9--9--9--9--9--9--9--9|-----|
|------------7875-|------------7875-|-88-88-88-88-88-88-88-88-|-----|
|-5/88888888------|-5/88888888------|-------------------------|-----|
|-----------------|-----------------|-------------------------|-----|
|-----------------|-----------------|-------------------------|-----|

verso (realmente...)
|----------------------------|esto hasta que diga estamos adheridos|
|----------------------------|---------------------|
|--------888888-999999-------|-888888-999999-------|
|-777777-888888-999999-666666|-888888-999999-666666|
|-777777-666666-777777-666666|-666666-777777-666666|
|-555555---------------444444|---------------444444|

(estamos adheridos...)
|---------------------------|
|---------------------------|
|-999999-101010101010-------|
|-999999-101010101010-777777|
|-777777--8-8-8-8-8-8-777777|
|---------------------555555|x6

coro (yo prometo cantar...)
|---------------------------------|
|---------------------------------|
|--------------111111111111-999999|
|-121212121212-111111111111-999999|
|-121212121212--9-9-9-9-9-9-777777|
|-101010101010--------------------|x16

Tap to rate this tab
# A B C D E F G H I J K L M N O P Q R S T U V W X Y Z