Song name
# A B C D E F G H I J K L M N O P Q R S T U V W X Y Z

Panda - Popurri Para Ti tab

PXNDX---POPURRI PARA TI / POETICS(acto1/track1)

intro (la la la...)
|----------------11------|----------------11------|----------------12-11---|
|-12-11-12----12----14-11|-12-11-12----12----14-11|-14-12-14----14-------14|
|----------11------------|----------13------------|----------13------------|
|------------------------|------------------------|------------------------|
|------------------------|------------------------|------------------------|
|------------------------|-----------------esto x2|-----------------todo x2|

verso (dicen que el odio...)
|--------------------------|----------------------------|
|--------------------------|----------------------------|
|-99999999-1111111111111111|----------------------------|
|-99999999-1111111111111111|-9-9-9-9-9-9-9-9-11-11-11-11|
|-77777777--9-9-9-9-9-9-9-9|-9-9-9-9-9-9-9-9-11-11-11-11|
|--------------------------|-7-7-7-7-6-6-6-6--9--9--9--9|x2

(para ti, para...)
|--------------------------|
|--------------------------|
|-99999999-1111111111111111|
|-99999999-1111111111111111|
|-77777777--9-9-9-9-9-9-9-9|
|--------------------------|

verso 2(que la muerte...)
|------------------------------|-------------------------------|
|------------------------------|-------------------------------|
|-999-999-99-111111-111111-1111|-------------------------------|
|-999-999-99-111111-111111-1111|-9-9-9--9-9-9--9-9-11--11-11-11|
|-777-777-77--9-9-9--9-9-9--9-9|-9-9-9--9-9-9--9-9-11--11-11-11|
|------------------------------|-7-7-7--7-6-6--6-6--9---9--9--9|x2

(para ti, para...)
|--------------------------|
|--------------------------|
|-99999999-1111111111111111|
|-99999999-1111111111111111|
|-77777777--9-9-9-9-9-9-9-9|
|--------------------------|

coro (en la noria...)
|------------------------------------|
|------------------------------------|
|-------------------99999999-66666666|
|-99999999-66666666-99999999-66666666|
|-99999999-66666666-77777777-44444444|
|-77777777-44444444------------------|x2

|----------------11------|----------------11------|----------------12-11---|
|-12-11-12----12----14-11|-12-11-12----12----14-11|-14-12-14----14-------14|
|----------11------------|----------13------------|----------13------------|
|------------------------|------------------------|------------------------|
|------------------------|------------------------|------------------------|
|------------------------|-----------------esto x2|-----------------todo x2|

verso (cada que me...)
no se toca nada

coro (en la noria...)
|------------------------------------|
|------------------------------------|
|-------------------99999999-66666666|
|-99999999-66666666-99999999-66666666|
|-99999999-66666666-77777777-44444444|
|-77777777-44444444------------------|x4

outro (la la la...sera senal del inicio...)
|----------------11------|----------------11------|----------------12-11---|
|-12-11-12----12----14-11|-12-11-12----12----14-11|-14-12-14----14-------14|
|----------11------------|----------13------------|----------13------------|
|------------------------|------------------------|------------------------|
|------------------------|------------------------|------------------------|
|------------------------|-----------------esto x2|-----------------todo x2|
Tap to rate this tab
# A B C D E F G H I J K L M N O P Q R S T U V W X Y Z