Song name
# A B C D E F G H I J K L M N O P Q R S T U V W X Y Z

Panda - Cuando No Es Como Deberia Ser tab

Mi primera cancion que subo si no saben el acorde ahi se los pongo abajo.
si la tienen afinada en bemol recorran un trast mas agudo =P

intro: a5 g5 f5 c5 x2

e-----3-----3-----3-----3-----3-----3-1-0--------|
B-0-1---0-1---0-1---0-1---0-1---0-1-------3-1-0--|
G------------------------------------------------|
D------------------------------------------------| x2
A------------------------------------------------|
E------------------------------------------------|

 a5  g5  f5  c5
e-----------------|
B-----------------|
G-----------|-5---|
D-7-|-5-|-3-|-5---|
A-7-|-5-|-3-|-3---|
E-5-|-3-|-1-|-----|


El verso va con puro bajo

Ya no volveremos a hablar
no volveremos tampoco a ver
Quise pedirte perdon
por tantas cosas que ni realize

e-------------------------7-5---|
B-9-7-9-7-9-7-9-7-9-7-9-7-----7-|

e-------------------------7-5------|
B-9-7-9-7-9-7-9-7-9-7-9-7-----7/12-|

(y con la otra guitarra)
a5         g5
pero ya no ya lo pense
f5         c5
me duele tanto decirlo
a5         g5
pero no se dio ya lo pense
f5         c5
mi dignidad es primero

(coro)casi igual que el intro pero una octava mas arriba los acordes en la segunda 
guitarra van igual
e------15------15------15------15------15------15-13-12---------|
B-12-13---12-13---12-13---12-13---12-13---12-13--------15-13-12-|
G---------------------------------------------------------------|
D---------------------------------------------------------------|
A---------------------------------------------------------------|
E---------------------------------------------------------------|

e------15------15------15------15------15------15-/17-15-13-12-13-|
B-12-13---12-13---12-13---12-13---12-13---12-13-------------------|
G-----------------------------------------------------------------|
D-----------------------------------------------------------------|
A-----------------------------------------------------------------|
E-----------------------------------------------------------------|

e------15------15------15------15------15------15-13-12-----------|
B-12-13---12-13---12-13---12-13---12-13---12-13--------15-13-12---|
G-----------------------------------------------------------------|
D-----------------------------------------------------------------|
A-----------------------------------------------------------------|
E-----------------------------------------------------------------|

e------15------15------15------15------15------15-/17-15-13-12-13-12-|
B-12-13---12-13---12-13---12-13---12-13---12-13----------------------|
G--------------------------------------------------------------------|
D--------------------------------------------------------------------|
A--------------------------------------------------------------------|
E--------------------------------------------------------------------|

Lo que sigue es igual que el verso anterior

Despues va con PALM MUTE

a5     g5        f5       c5
  Ya no queria darte la razon  x2
a5     g5        f5       c5
 Pero queria cambiar tu opinion

a5     g5         f5      c5
 Talves asi es mejor odiame
a5     g5         f5      silencio
 Talves asi es mejor recuerdas que facil es

ya normal
a5     g5         f5      c5
talves asi es mejor odiame
a5     g5         f5      c5
pues ya tranquilo estoy uoohooh

a5     g5         f5      c5 x2
Tap to rate this tab
 
# A B C D E F G H I J K L M N O P Q R S T U V W X Y Z