Song name
# A B C D E F G H I J K L M N O P Q R S T U V W X Y Z

Panda - Martirio De Otro tab

PXNDX---MARTIRIO DE OTRO / POETICS(acto2/track3)

intro(quisiera...)
|----------------------------------|
|---------------------888888-------|
|--8-8-8-8-8-8-555555-888888-555555|
|-101010101010-666666-888888-666666|
|-101010101010-666666-666666-666666|
|--8-8-8-8-8-8-444444-666666-444444|x2

|-------------------------------------------------------------|
|-------------------------------------------------------------|
|-------------------------------------------------------------|
|--8--8--8--8--8--8--6-6-6-6-6-6--8--8--8--8--8--8-4-4-4-4-4-4|
|-10-10-10-10-10-10--8-8-8-8-8-8-10-10-10-10-10-10-6-6-6-6-6-6|
|--8--8--8--8--8--8--6-6-6-6-6-6--8--8--8--8--8--8-4-4-4-4-4-4|

verso(ignoro como...)
|----------------------------------------------|
|----------------------------------------------|
|-----------------------------66666666---------|
|--8-8-8-8-8-8-8-8-8-44444444-88888888-44444444|
|-101010101010101010-66666666-66666666-66666666|
|--8-8-8-8-8-8-8-8-8-44444444----------44444444|x2

verso 2(pues yo ya...)
|------------------------------------|
|------------------------------------|
|----------66666666-88888888-66666666|
|-55555555-66666666-88888888-66666666|
|-55555555-44444444-66666666-44444444|
|-33333333---------------------------|x2

coro(no hables...)
|-------------------------------------------------|
|-------------------------------------------------|
|-----------------------------66666666------------|
|--8-8-8-8-8-8-8-8-8-44444444-88888888-44444-55555|
|-101010101010101010-66666666-66666666-66666-55555|
|--8-8-8-8-8-8-8-8-8-44444444----------44444-33333|x2

solo(esto es a madres y con muchos uevos)
|------------------------------------------------------------------------|
|-------------------------------------18171615-18171615------------------|
|-15141312-15141312-15141312-15141312-------------------15141312-15141312|
|------------------------------------------------------------------------|
|------------------------------------------------------------------------|
|------------------------------------------------------------------------|

|-------------------15141312---------------------------------------------|
|----------------------------15141312-------------------15141312-15141312|
|-15141312-15141312-------------------15141312-15141312------------------|
|------------------------------------------------------------------------|
|------------------------------------------------------------------------|
|------------------------------------------------------------------------|

|------------------------------------------------------------------------|
|-------------------15141312-------------------15141312------------------|
|-15141312-15141312----------15141312-15141312----------18171615-18171615|
|------------------------------------------------------------------------|
|------------------------------------------------------------------------|
|------------------------------------------------------------------------|

|-18171615-15141312------------------|
|-------------------15141312---------|
|----------------------------15141312|
|------------------------------------|
|------------------------------------|
|------------------------------------|

|------------------------------------------------------------------------|
|-------------------------------------20191817-20191817------------------|
|-17161514-17161514-17161514-17161514-------------------17161514-17161514|
|------------------------------------------------------------------------|
|------------------------------------------------------------------------|
|------------------------------------------------------------------------|

|-------------------17161514---------------------------------------------|
|----------------------------17161514-------------------17161514-17161514|
|-17161514-17161514-------------------17161514-17161514------------------|
|------------------------------------------------------------------------|
|------------------------------------------------------------------------|
|------------------------------------------------------------------------|

|------------------------------------------------------------------------|
|-------------------17161514-------------------17161514------------------|
|-17161514-17161514----------17161514-17161514----------20191817-20191817|
|------------------------------------------------------------------------|
|------------------------------------------------------------------------|
|------------------------------------------------------------------------|

|-20191716-17161514--------------------------------|
|-------------------17161514-----------------------|
|----------------------------17161514-1211109-10/12|
|--------------------------------------------------|
|--------------------------------------------------|
|--------------------------------------------------|
fin =)

verso (sin trajes...)
|-------3---------4---------6---------6|
|-----3---------4---------8---------6--|
|---3---------5---------8---------7----|
|-5---------6---------8---------8------|
|--------------------------------------|
|--------------------------------------|x2

coro(no hables...)
|-------------------------------------------------|
|-------------------------------------------------|
|-----------------------------66666666------------|
|--8-8-8-8-8-8-8-8-8-44444444-88888888-44444-55555|
|-101010101010101010-66666666-66666666-66666-55555|
|--8-8-8-8-8-8-8-8-8-44444444----------44444-33333|x4

letra:
[intro]
Quisiera enseñarme a volar
Alas de cera cerca del sol
Al fin y al cabo el paraíso me aceptará
Soy un mártir más

[verso]
Ignoro como cuando y donde nos
encontraremos de nuevo amor
Solo sigue los pasos que escribí
y te prometo te veré aquí

[verso 2]
Pues yo ya me fui con gente que
extraños son a tu creer, extraños son
familia que apenas vas a conocer

[coro]
No hables mas no quiero que digas
palabras deshonestas y humillantes
es un lugar donde lo nuestro no tendrá que terminar nunca jamás

[solo]

[verso]
Sin trajes ni cohetes ni
ciencia que diga como proseguir
la tierra no nos despidió
y ahora desciendo en otra dirección

[coro]
No hables mas no quiero que digas
palabras deshonestas y humillantes
es un lugar donde lo nuestro no tendrá que terminar nunca jamás

No hables mas no quiero que 
te escuchen recitar letras dramáticas
es un lugar que es mas bello de lo que jamás podrás imaginar.
Tap to rate this tab
# A B C D E F G H I J K L M N O P Q R S T U V W X Y Z