Song name
# A B C D E F G H I J K L M N O P Q R S T U V W X Y Z

Panda - El Cuello Perfecto tab

Intro:

D#||--2--x--2--x--2--2--2--2--|--x--2--2--2--x--2--2--2--|
A#||--3--x--3--x--3--3--3--2--|--x--2--2--3--x--3--3--2--|
F#||--4--x--4--x--4--4--4--4--|--x--4--4--4--x--4--4--4--|
C#||--4--x--4--x--4--4--4--4--|--x--4--4--4--x--4--4--4--|
G#||--2--x--2--x--2--2--2--2--|--x--2--2--2--x--2--2--2--|
D#||--2--x--2--x--2--2--2--2--|--x--2--2--2--x--2--2--2--|


--2--x--2--x--2--2--2--2--|--x--2--2--2--x--2--2--2--|
--3--x--3--x--3--3--3--2--|--x--2--2--3--x--3--3--2--|
--2--x--2--x--2--2--2--2--|--x--2--2--2--x--2--2--2--|
--------------------------|--------------------------|
--------------------------|--------------------------|
--------------------------|--------------------------|


--3--x--3--x--3--3--3--5--|--x--5--5--3--x--3--3--3--|
--3--x--3--x--3--3--3--3--|--x--3--3--3--x--3--3--3--|
--4--x--4--x--4--4--4--4--|--x--4--4--4--x--4--4--4--|
--------------------------|--------------------------|
--------------------------|--------------------------|
--------------------------|--------------------------|

--2--x--2--x--2--3--2--0--|--x--0--0--0--x--0--0--0--|
--3--x--3--x--3--3--3--2--|--x--2--2--2--x--2--2--2--|
--2--x--2--x--2--2--2--2--|--x--2--2--2--x--2--2--2--| X2
-----------------------2--|-----2--2--2-----2--2--2--|
--------------------------|--------------------------|
--------------------------|--------------------------|
Verso 1:

--2--x--2--x--2--2--2--2--|--x--2--2--2--x--2--2--2--|
--3--x--3--x--3--3--3--2--|--x--2--2--3--x--3--3--2--|
--4--x--4--x--4--4--4--4--|--x--4--4--4--x--4--4--4--|
--4--x--4--x--4--4--4--4--|--x--4--4--4--x--4--4--4--|
--2--x--2--x--2--2--2--2--|--x--2--2--2--x--2--2--2--|
--2--x--2--x--2--2--2--2--|--x--2--2--2--x--2--2--2--|


--2--x--2--x--2--2--2--2--|--x--2--2--2--x--2--2--2--|
--3--x--3--x--3--3--3--2--|--x--2--2--3--x--3--3--2--|
--2--x--2--x--2--2--2--2--|--x--2--2--2--x--2--2--2--|
--------------------------|--------------------------|    X2
--------------------------|--------------------------|
--------------------------|--------------------------|

verso 2:
r2d2:
------------------5-5-5-5---------|----------------------------------|
--7-7-7-7-7-7-7-7----------7-7-7-7|----------------------------------|
----------------------------------|--7-7-7-7-7-7-7-7-7-9-9-9-9-9-9-9-|
----------------------------------|----------------------------------| X2
----------------------------------|----------------------------------|
----------------------------------|----------------------------------|

pp:

|----------------------------------|
|----------------------------------|
|----------------------------------|
|--2-2-2-2-2-2-2-2-2-2-2-2-2-2-2-2-|
|--2-2-2-2-2-2-2-2-2-2-2-2-2-2-2-2-|
|--0-0-0-0-0-0-0-0-0-0-0-0-0-0-0-0-|

----------------------------------|
----------------------------------|
----------------------------------|
--7-7-7-7-7-7-7-7-7-7-7-7-7-7-7-7-|   X2
--7-7-7-7-7-7-7-7-7-7-7-7-7-7-7-7-|
--5-5-5-5-5-5-5-5-5-5-5-5-5-5-5-5-|

verso 3:
r2d2:
--2--x--2--x--2--2--2--2--|--x--2--2--2--x--2--2--2--|
--3--x--3--x--3--3--3--2--|--x--2--2--3--x--3--3--2--|
--4--x--4--x--4--4--4--4--|--x--4--4--4--x--4--4--4--|
--4--x--4--x--4--4--4--4--|--x--4--4--4--x--4--4--4--|
--2--x--2--x--2--2--2--2--|--x--2--2--2--x--2--2--2--|
--2--x--2--x--2--2--2--2--|--x--2--2--2--x--2--2--2--|

--2--x--2--x--2--2--2--2--|--x--2--2--2--x--2--2--2--|
--3--x--3--x--3--3--3--2--|--x--2--2--3--x--3--3--2--|
--2--x--2--x--2--2--2--2--|--x--2--2--2--x--2--2--2--|
--------------------------|--------------------------|    X2
--------------------------|--------------------------|
--------------------------|--------------------------|


|--2----------------|--3----------------|
|--3----------------|--2----------------|
|--4----------------|--3----------------|   X2
|--4----------------|--0----------------|
|--2----------------|--0----------------|
|--2----------------|-------------------|

verso 4:
r2d2:
------------------5-5-5-5---------|----------------------------------|
--7-7-7-7-7-7-7-7----------7-7-7-7|----------------------------------|
----------------------------------|--7-7-7-7-7-7-7-7-7-9-9-9-9-9-9-9-|
----------------------------------|----------------------------------| X2
----------------------------------|----------------------------------|
----------------------------------|----------------------------------|

pp:

|----------------------------------|
|----------------------------------|
|----------------------------------|
|--2-2-2-2-2-2-2-2-2-2-2-2-2-2-2-2-|
|--2-2-2-2-2-2-2-2-2-2-2-2-2-2-2-2-|
|--0-0-0-0-0-0-0-0-0-0-0-0-0-0-0-0-|

----------------------------------|
----------------------------------|
----------------------------------|
--7-7-7-7-7-7-7-7-7-7-7-7-7-7-7-7-|   X2
--7-7-7-7-7-7-7-7-7-7-7-7-7-7-7-7-|
--5-5-5-5-5-5-5-5-5-5-5-5-5-5-5-5-|

Pre-coro:
r2d2:

|-------------------|-------------------|
|-------------------|-------------------|
|-------------------|-------------------|
|--5----------------|-------------------|
|--5----------------|-------------------|
|--3----------------|-------------------|

-------------------|-------------------|
-------------------|-------------------|
-------------------|-------------------|
--9----------------|--7----------------|
--9----------------|--7----------------|
--7----------------|--5----------------|

pp:

|--3----------------|
|--3----------------|
|--0----------------|
|--0----------------|
|--2----------------|
|--3----------------|


-------------------|--------------------------|--0--0--0--0--0--0--0--0--|
-------------------|--------------------------|--2--2--2--2--2--2--2--2--|
-------------------|--4--4--4--4--4--4--4--4--|--2--2--2--2--2--2--2--2--|
-------------------|--4--4--4--4--4--4--4--4--|--2--2--2--2--2--2--2--2--|
-------------------|--2--2--2--2--2--2--2--2--|--0--0--0--0--0--0--0--0--|
-------------------|--------------------------|--------------------------|

coro:
r2d2:

|--------------------------|
|--------------------------|
|--------14----------14----|
|--16----------16----------|
|--------------------------|
|--------------------------|

--------------------------|----------------------|----------------------|
--------------------------|----------------------|----------------------|
--------14----------14----|-------6---------6----|-------6---------6----|
--16----------16----------|--7---------7---------|--7---------7---------|
--------------------------|----------------------|----------------------|
--------------------------|----------------------|----------------------|

--------------------------|--------------------------|
--------------------------|--------------------------|
--------12----------12----|--------12----------12----|
--12----------12----------|--12----------12----------|
--------------------------|--------------------------|
--------------------------|--------------------------|

--------------------------|--------------------------|
--------------------------|--------------------------|
--------14----------14----|--------16----14----------|
--16----------16----------|--16----------------16----| X2
--------------------------|--------------------------|
--------------------------|--------------------------|

pp:

--------------------------|--------------------------|
--------------------------|--------------------------|
--4--4--4--4--4--4--4--4--|--4--4--4--4--4--4--4--4--|
--4--4--4--4--4--4--4--4--|--4--4--4--4--4--4--4--4--|
--2--2--2--2--2--2--2--2--|--2--2--2--2--2--2--2--2--|
--------------------------|--------------------------|

--2--2--2--2--2--2--2--2--|--2--2--2--2--2--2--2--2--|
--3--3--3--3--3--3--3--3--|--3--3--3--3--3--3--3--3--|
--2--2--2--2--2--2--2--2--|--2--2--2--2--2--2--2--2--|
--0--0--0--0--0--0--0--0--|--0--0--0--0--0--0--0--0--|
--0--0--0--0--0--0--0--0--|--0--0--0--0--0--0--0--0--|
--------------------------|--------------------------|

--3--3--3--3--3--3--3--3--|--3--3--3--3--3--3--3--3--|
--3--3--3--3--3--3--3--3--|--3--3--3--3--3--3--3--3--|
--0--0--0--0--0--0--0--0--|--0--0--0--0--0--0--0--0--|
--0--0--0--0--0--0--0--0--|--0--0--0--0--0--0--0--0--|
--2--2--2--2--2--2--2--2--|--2--2--2--2--2--2--2--2--|
--3--3--3--3--3--3--3--3--|--3--3--3--3--3--3--3--3--|

--0--0--0--0--0--0--0--0--|--0--0--0--0--0--0--0--0--|
--2--2--2--2--2--2--2--2--|--2--2--2--2--2--2--2--2--|
--2--2--2--2--2--2--2--2--|--2--2--2--2--2--2--2--2--|
--2--2--2--2--2--2--2--2--|--2--2--2--2--2--2--2--2--|
--0--0--0--0--0--0--0--0--|--0--0--0--0--0--0--0--0--|
--------------------------|--------------------------|

--------------------------|--------------------------|
--------------------------|--------------------------|
--4--4--4--4--4--4--4--4--|--4--4--4--4--4--4--4--4--|
--4--4--4--4--4--4--4--4--|--4--4--4--4--4--4--4--4--|
--2--2--2--2--2--2--2--2--|--2--2--2--2--2--2--2--2--|
--------------------------|--------------------------|

--2--2--2--2--2--2--2--2--|--2--2--2--2--2--2--2--2--|
--3--3--3--3--3--3--3--3--|--3--3--3--3--3--3--3--3--|
--2--2--2--2--2--2--2--2--|--2--2--2--2--2--2--2--2--|
--0--0--0--0--0--0--0--0--|--0--0--0--0--0--0--0--0--|
--0--0--0--0--0--0--0--0--|--0--0--0--0--0--0--0--0--|
--------------------------|--------------------------|

--3--3--3--3--3--3--3--3--|--3--3--3--3--3--3--3--3--|
--3--3--3--3--3--3--3--3--|--3--3--3--3--3--3--3--3--|
--0--0--0--0--0--0--0--0--|--0--0--0--0--0--0--0--0--|
--0--0--0--0--0--0--0--0--|--0--0--0--0--0--0--0--0--|
--2--2--2--2--2--2--2--2--|--2--2--2--2--2--2--2--2--|
--3--3--3--3--3--3--3--3--|--3--3--3--3--3--3--3--3--|

--2--2--2--2--2--2--2--2--|--0--0--0--0--0--0--0--0--|--3----------------|
--3--3--3--3--3--3--3--3--|--2--2--2--2--2--2--2--2--|--3----------------|
--2--2--2--2--2--2--2--2--|--2--2--2--2--2--2--2--2--|--0----------------|
--0--0--0--0--0--0--0--0--|--2--2--2--2--2--2--2--2--|--0----------------|
--0--0--0--0--0--0--0--0--|--0--0--0--0--0--0--0--0--|--2----------------|
--------------------------|--------------------------|--3----------------|
se vuelve a tocar el intro
verso 5: pura bateria
verso 6:
--2--x--2--x--2--2--2--2--|--x--2--2--2--x--2--2--2--|
--3--x--3--x--3--3--3--2--|--x--2--2--3--x--3--3--2--|
--4--x--4--x--4--4--4--4--|--x--4--4--4--x--4--4--4--|
--4--x--4--x--4--4--4--4--|--x--4--4--4--x--4--4--4--|
--2--x--2--x--2--2--2--2--|--x--2--2--2--x--2--2--2--|
--2--x--2--x--2--2--2--2--|--x--2--2--2--x--2--2--2--|

--2--x--2--x--2--2--2--2--|--x--2--2--2--x--2--2--2--|
--3--x--3--x--3--3--3--2--|--x--2--2--3--x--3--3--2--|
--2--x--2--x--2--2--2--2--|--x--2--2--2--x--2--2--2--|
--------------------------|--------------------------|    X2
--------------------------|--------------------------|
--------------------------|--------------------------|
verso 7:
r2d2:
--14~~~~~17--------------------------14~~~~~~17---------------|
--17b19~~~~---19r17-15-17--15-14-----17b19~~~~~---19r17-15-17-|
--------------------------------------------------------------|
--------------------------------------------------------------|
--------------------------------------------------------------|
--------------------------------------------------------------|
pp:
|----------------------------------|
|----------------------------------|
|----------------------------------|
|--2-2-2-2-2-2-2-2-2-2-2-2-2-2-2-2-|
|--2-2-2-2-2-2-2-2-2-2-2-2-2-2-2-2-|
|--0-0-0-0-0-0-0-0-0-0-0-0-0-0-0-0-|

----------------------------------|
----------------------------------|
----------------------------------|
--7-7-7-7-7-7-7-7-7-7-7-7-7-7-7-7-|   X2
--7-7-7-7-7-7-7-7-7-7-7-7-7-7-7-7-|
--5-5-5-5-5-5-5-5-5-5-5-5-5-5-5-5-|
coro igual
solo 1era parte:
r2d2:

|--------------------|
|--------------------|
|--7------------9----|
|--------------------|
|--------------------|
|--------------------|


----------------------|----------------------|-----------------------|
----------------------|----------------------|-----------------------|
--9b------------9--7--|--9b------------7-----|--7--9--7--9--7--------|
----------------------|-------------------9--|-----------------------|
----------------------|----------------------|-----------------------|
----------------------|----------------------|-----------------------|

---------------------|------------------------|----------------12--10--------|
-----------7---------|---8---------10---------|--12---------12--------10b----|
-----------9b--------|--10b--------12b--------|--14b-------------------------|
--0------------------|------------------------|------------------------------|
---------------------|------------------------|------------------------------|
---------------------|------------------------|------------------------------|

|-----------------------------------|
|---------------------------0s-2s---|
|-------------------0s-2s-4---------|
|-----------0s-2s-4-----------------|
|-----------------------------------|
|--0--------------------------------|

---------------------------------|---------------2--0s-2s-3-3--0s-2s-|
--3s-5--------5s-3s-2s-0---------|--0s-2s-3-5------------------------|
-------------------------0s-2s-4-|-----------------------------------|
---------------------------------|-----------------------------------|
---------------------------------|-----------------------------------|
-----L---------------------------|-----------------------------------|


--3-5-----------------|--17--15--14-15-14-----14---------------|
----------------------|-------------------17------17--15-17-15-|
----------------------|----------------------------------------|
----------------------|----------------------------------------|
----------------------|----------------------------------------|
----------------------|----------------------------------------|


---------------------------------|---------------------14--15--17----|
--14--15--14---------------------|---------14--15--17----------------|
--------------16--14--16---16----|----16-----------------------------|
---------------------------------|-----------------------------------|
---------------------------------|-----------------------------------|
---------------------------------|-----------------------------------|


 el 19 es tapping
--17-19-17-19-17-19-17-19-17-19-17-19-17-19-17-19-|
--------------------------------------------------|
--------------------------------------------------|
--------------------------------------------------|
--------------------------------------------------|
--------------------------------------------------|
 pp:

|-------------------|
|-------------------|
|-------------------|
|--5----------------|
|--5----------------|
|--3----------------|

-------------------|---------------------|-------------------|
-------------------|---------------------|-------------------|
-------------------|---------------------|-------------------|
--L----------------|--9-------------7----|-------------------|
--L----------------|--9-------------7----|-------------------|
--L----------------|--7-------------5----|-------------------|

-------------------|-------------------|---------------------|
-------------------|-------------------|---------------------|
-------------------|-------------------|---------------------|
--5----------------|-------------------|--9-------------7----|
--5----------------|-------------------|--9-------------7----|
--3----------------|-------------------|--7-------------5----|

-------------------|-------------------|-------------------|
-------------------|-------------------|-------------------|
-------------------|-------------------|-------------------|
-------------------|--2----------------|-------------------|
-------------------|--2----------------|-------------------|
-------------------|--0----------------|-------------------|

---------------------|-------------------|-------------------|
---------------------|-------------------|-------------------|
---------------------|-------------------|-------------------|
--9-------------7----|-------------------|--2----------------|
--9-------------7----|-------------------|--2----------------|
--7-------------5----|-------------------|--0----------------|

-------------------|---------------------|-------------------|
-------------------|---------------------|-------------------|
-------------------|---------------------|-------------------|
--L----------------|--9-------------7----|-------------------|
--L----------------|--9-------------7----|-------------------|
--L----------------|--7-------------5----|-------------------|

solo 2da parte:
r2d2:

--14--15--14------------14--15--|--14----------------------|
--------------15--17------------|------15--17--------------|
--------------------------------|----------------16--------|
--------------------------------|--------------------------|
--------------------------------|--------------------------|
--------------------------------|--------------------------|

--14--15--14------------17--19--|--17--15--14--15--14------------|
--------------15--17------------|----------------------17--15----|
--------------------------------|--------------------------------|
--------------------------------|--------------------------------|
--------------------------------|--------------------------------|
--------------------------------|--------------------------------|

--14--15--14------------14--15--|--14----------------------|
--------------15--17------------|------15--17--------------|
--------------------------------|----------------16--------|
--------------------------------|--------------------------|
--------------------------------|--------------------------|
--------------------------------|--------------------------|

--14--15--14--------------------|-----------------------------------|
--------------15--17----14--14--|--14s--15--15s--17--17s--19--19----|
--------------------------------|-----------------------------------|
--------------------------------|-----------------------------------|
--------------------------------|-----------------------------------|
--------------------------------|-----------------------------------|

------------------------------|--------------------------|
--15----14----------------14--|--15----14----------------|
------------14--------14------|------------14------------|
----------------16------------|----------------16--------|
------------------------------|--------------------------|
------------------------------|--------------------------|

--------------------------------|------------------------|
--15--15--14--------------------|------------------------|
--------------14----------------|------------------------|
------------------16----16--14--|--16----16br------------|
--------------------------------|------------------------|
--------------------------------|------------------------|

--14--15--14------------14--15--|--14----------------------|
--------------15--17------------|------15--17--------------|
--------------------------------|----------------16--------|
--------------------------------|--------------------------|
--------------------------------|--------------------------|
--------------------------------|--------------------------|

--14--15--14------------17--17--|--17\-----------------|-------|-------|
--------------15--17----15--15--|--15\-----------------|-------|-------|
--------------------------------|----------------------|-------|-------|
--------------------------------|----------------------|-------|-------|
--------------------------------|----------------------|-------|-------|
--------------------------------|----------------------|-------|-------|
pp:

--------------------------|-----------------------|-------------------------|
--------------------------|-----------------------|-------------------------|
--------------------------|-----------------------|--4--4--4--4--4----------|
--5--5--5--5--5-----5--5--|--5--5--5--------------|--4--4--4--4--4-----7--7-|
--5--5--5--5--5-----5--5--|--5--5--5--------------|--2--2--2--2--2-----7--7-|
--3--3--3--3--3-----3--3--|--3--3--3--------------|--------------------5--5-|

-----------------------|--------------------------|-----------------------|
-----------------------|--------------------------|-----------------------|
-----------------------|--------------------------|-----------------------|
--7--7--7--------------|--5--5--5--5--5-----5--5--|--5--5--5--------------|
--7--7--7--------------|--5--5--5--5--5-----5--5--|--5--5--5--------------|
--5--5--5--------------|--3--3--3--3--3-----3--3--|--3--3--3--------------|

--------------------------|-----------------------|--------------------------|
--------------------------|-----------------------|--------------------------|
--4--4--4--4--4-----------|-----------------------|--------------------------|
--4--4--4--4--4-----7--7--|--7--7--7--------------|--2--2--2--2--2-----2--2--|
--2--2--2--2--2-----7--7--|--7--7--7--------------|--2--2--2--2--2-----2--2--|
--------------------5--5--|--5--5--5--------------|--0--0--0--0--0-----0--0--|

-----------------------|--------------------------|-----------------------|
-----------------------|--------------------------|-----------------------|
-----------------------|--4--4--4--4--4-----------|-----------------------|
--2--2--2--------------|--4--4--4--4--4-----7--7--|--7--7--7--------------|
--2--2--2--------------|--2--2--2--2--2-----7--7--|--7--7--7--------------|
--0--0--0--------------|--------------------5--5--|--5--5--5--------------|

--------------------------|-----------------------|--------------------------|
--------------------------|-----------------------|--------------------------|
--------------------------|-----------------------|--4--4--4--4--4-----------|
--2--2--2--2--2-----2--2--|--2--2--2--------------|--4--4--4--4--4-----7--7--|
--2--2--2--2--2-----2--2--|--2--2--2--------------|--2--2--2--2--2-----7--7--|
--0--0--0--0--0-----0--0--|--0--0--0--------------|--------------------5--5--|


-----------------------|-------|-------|-------||
-----------------------|-------|-------|-------||
-----------------------|-------|-------|-------||
--7--7--7--------------|-------|-------|-------||
--7--7--7--------------|-------|-------|-------||
--5--5--5--------------|-------|-------|-------||

Dudas, Comentarios y/o mentadas de madre al correo: panda_vetealaverga@hotmail.com
Tap to rate this tab
# A B C D E F G H I J K L M N O P Q R S T U V W X Y Z