Song name
# A B C D E F G H I J K L M N O P Q R S T U V W X Y Z

Panda - Nuestra Afliccion tab

LA GUITARRA DE PP VA AFINADA EN BEMOL CON CAPO EN EL 2DO TRASTE Y LA DE R2D2 VA EN 
BEMOL( LA DE PP SON LA DE LOS ACORDES Y LA R2D2 SON LAS TABLATURAS)

VERSO 1: SOLO PP
D
Cuanto
              F#m
cuanto se necesita
           Bm
para ya resolver, destruir,
       G      6||--2----||
este dilema que me tortura
       Em
en las noches,
             A 
no me deja soñar,
               Em
amplifica mis temores,
        G   A 
ciclo cabal

VERSO: 2
PP:
 D
me encerre
                    F#m
y acabe con mis sueños
               Bm
y la llave arroje,
                 G 6||--2----||
¿para que? los necesito
                   Em
solo me causan angustia,
                  A 
me hace falta un plan,
                 Em
me hace falta astucia
          G    A 
y paz mental

R2D2 CASI NO SE OYE MUCHO PERO OIGANLA BIEN Y LE ATINARAN:                  
-----------------|-------|--------------------|---------------|-------|
----------9------|-------|-----------9--------|---------------|-------|
--9----8---------|-------|--------8-----8-----|---------------|-------|
-----------------|-------|-----6-----------6--|---------------|-------|
-----------------|-------|--------------------|---------------|-------|
-----------------|-------|--------------------|---------------|-------|
      
-------|------------------|---------|-------------------|---------------|
-------|------------------|---------|----------7--------|---------------|
-------|------------------|---------|-------------6-----|---------------|
-------|--7----9--11------|---------|-------7--------7--|---------------|
-------|------------------|---------|-------------------|---------------|
-------|------------------|---------|-------------------|---------------|
    
-------|-------|-------------------|---------------|------------------|
-------|-------|----------7--------|---------------|------------------|
-------|-------|-------------6-----|---------------|------------------|
-------|-------|-------7--------7--|---------------|--7----9--11------|
-------|-------|-------------------|---------------|------------------|
-------|-------|-------------------|---------------|------------------|

VERSO 3:
PP:
  D                      F#m
entiendo el rechazo del mundo,
            Bm
tu repudio amor, pues es igual
             G
si me conociera,
                    Em
talves voltearia mi cara,
                   A 
talves sentiria lastima,
                     Em
dicen que el amor mancha
           G    A 
y ya me ensucie

R2D2:       
-------|-----------------|-------|--------------------|---------------|
-------|----------9------|-------|-----------9--------|---------------|
-------|-------8---------|-------|--------8-----8-----|---------------|
-------|-----------------|-------|-----6-----------6--|--L------------|
-------|-----------------|-------|--------------------|---------------|
-------|-----------------|-------|--------------------|---------------|

-------|-------|------------------|---------|-------------------|
-------|-------|------------------|---------|----------7--------|
-------|-------|------------------|---------|-------------6-----|
-------|-------|--7----9--11------|---------|-------7--------7--|
-------|-------|------------------|---------|-------------------|
-------|-------|------------------|---------|-------------------|
          
---------------|-------|-------|-------------------|---------------|
---------------|-------|-------|----------7--------|---------------|
---------------|-------|-------|-------------6-----|---------------|
--L------------|-------|-------|-------7--------7--|--L------------|
---------------|-------|-------|-------------------|---------------|
---------------|-------|-------|-------------------|---------------|

------------------|---------|
------------------|---------|
------------------|---------|
--7----9--11------|---------|
------------------|---------|
------------------|---------|
 
CORO
PP:
D              F#m
parece, si parece
      Bm
oh no no
                   G
que lo mucho que ofrezco
                      D
no ofrece tanto y por eso,
    F#m
por eso
        Bm
me afronte
                      G
y dejaré de ser una carga,
                              Em
pues yo ya no aguanto mas farsas
                A 
no lo puedo evitar,
                       Em
sentir que muere mi flama,
             G   A 
cuando no estas

R2D2: 
|------------------------|
|------------------------|
|------------------------|
|--2--2-2-2-2-2--2-2-2-2-|
|--2--2-2-2-2-2--2-2-2-2-|
|--0--0-0-0-0-0--0-0-0-0-|
 
------------------------|------------------------|------------------------|
------------------------|------------------------|------------------------|
------------------------|------------------------|------------------------|
--2--2-2-2-2-2--2-2-2-2-|--6--6-6-6-6-6--6-6-6-6-|--6--6-6-6-6-6--6-6-6-6-|
--2--2-2-2-2-2--2-2-2-2-|--6--6-6-6-6-6--6-6-6-6-|--6--6-6-6-6-6--6-6-6-6-|
--0--0-0-0-0-0--0-0-0-0-|--4--4-4-4-4-4--4-4-4-4-|--4--4-4-4-4-4--4-4-4-4-|
     PM PM PM PM                            PM PM PM PM PM     
--------------------|--------------------|--------------------|
--------------------|--------------------|--------------------|
--6-----------------|--------------------|--------------------|
--6--6--6--6--6--6--|--6--6--6--6--6--6--|--------------------|
--4--4--4--4--4--4--|--4--4--4--4--4--4--|--7--7--7--7--7--7--|
--------------------|--------------------|--5--5--5--5--5--5--|

--------------------|------------------------|------------------------|
--------------------|------------------------|------------------------|
--------------------|------------------------|------------------------|
--------------------|--2--2-2-2-2-2--2-2-2-2-|--2--2-2-2-2-2--2-2-2-2-|
--7--7--7--7--7--7--|--2--2-2-2-2-2--2-2-2-2-|--2--2-2-2-2-2--2-2-2-2-|
--5--5--5--5--5--5--|--0--0-0-0-0-0--0-0-0-0-|--0--0-0-0-0-0--0-0-0-0-|
                                                       PM PM PM PM     
------------------------|------------------------|--------------------|
------------------------|------------------------|--------------------|
------------------------|------------------------|--6-----------------|
--6--6-6-6-6-6--6-6-6-6-|--6--6-6-6-6-6--6-6-6-6-|--6--6--6--6--6--6--|
--6--6-6-6-6-6--6-6-6-6-|--6--6-6-6-6-6--6-6-6-6-|--4--4--4--4--4--4--|
--4--4-4-4-4-4--4-4-4-4-|--4--4-4-4-4-4--4-4-4-4-|--------------------|

                       PM PM PM PM PM                            
--------------------|--------------------|--------------------|
--------------------|--------------------|--------------------|
--------------------|--------------------|--------------------|
--6--6--6--6--6--6--|--------------------|--------------------|
--4--4--4--4--4--4--|--7--7--7--7--7--7--|--7--7--7--7--7--7--|
--------------------|--5--5--5--5--5--5--|--5--5--5--5--5--5--|

------------------------|------------------------|------------------------|
------------------------|------------------------|------------------------|
------------------------|------------------------|--4--4-4-4-4-4--4-4-4-4-|
--4--4-4-4-4-4--4-4-4-4-|--4--4-4-4-4-4--4-4-4-4-|--4--4-4-4-4-4--4-4-4-4-|
--4--4-4-4-4-4--4-4-4-4-|--4--4-4-4-4-4--4-4-4-4-|--2--2-2-2-2-2--2-2-2-2-|
--2--2-2-2-2-2--2-2-2-2-|--2--2-2-2-2-2--2-2-2-2-|------------------------|
 
------------------------|------------------------|------------------------|
------------------------|------------------------|------------------------|
--4--4-4-4-4-4--4-4-4-4-|------------------------|------------------------|
--4--4-4-4-4-4--4-4-4-4-|--4--4-4-4-4-4--4-4-4-4-|--4--4-4-4-4-4--4-4-4-4-|
--2--2-2-2-2-2--2-2-2-2-|--4--4-4-4-4-4--4-4-4-4-|--4--4-4-4-4-4--4-4-4-4-|
------------------------|--2--2-2-2-2-2--2-2-2-2-|--2--2-2-2-2-2--2-2-2-2-|
 
------------------------|------------------------|
------------------------|------------------------|
------------------------|------------------------|
--7--7-7-7-7-7--7-7-7-7-|--9--9-9-9-9-9--9-9-9-9-|
--7--7-7-7-7-7--7-7-7-7-|--9--9-9-9-9-9--9-9-9-9-|
--5--5-5-5-5-5--5-5-5-5-|--7--7-7-7-7-7--7-7-7-7-|


PP:
    D                  F#m
y asi cierro un ciclo amor,
               Bm
necesito un favor,
                     G
un poco mas de medicina,
                          Em
pues nunca entendi la manera
              A 
para poder evitar,
                           Em
sentir que me rompen las piernas
           G     A 
cuando no estas
R2D2:
|------------------------|
|------------------------|
|------------------------|
|--2--2-2-2-2-2--2-2-2-2-|
|--2--2-2-2-2-2--2-2-2-2-|
|--0--0-0-0-0-0--0-0-0-0-|

------------------------|------------------------|------------------------|
------------------------|------------------------|------------------------|
------------------------|------------------------|------------------------|
--2--2-2-2-2-2--2-2-2-2-|--6--6-6-6-6-6--6-6-6-6-|--6--6-6-6-6-6--6-6-6-6-|
--2--2-2-2-2-2--2-2-2-2-|--6--6-6-6-6-6--6-6-6-6-|--6--6-6-6-6-6--6-6-6-6-|
--0--0-0-0-0-0--0-0-0-0-|--4--4-4-4-4-4--4-4-4-4-|--4--4-4-4-4-4--4-4-4-4-|

     PM PM PM PM                            PM PM PM PM PM     
--------------------|--------------------|--------------------|
--------------------|--------------------|--------------------|
--6-----------------|--------------------|--------------------|
--6--6--6--6--6--6--|--6--6--6--6--6--6--|--------------------|
--4--4--4--4--4--4--|--4--4--4--4--4--4--|--7--7--7--7--7--7--|
--------------------|--------------------|--5--5--5--5--5--5--|

--------------------|------------------------|------------------------|
--------------------|------------------------|------------------------|
--------------------|------------------------|------------------------|
--------------------|--4--4-4-4-4-4--4-4-4-4-|--4--4-4-4-4-4--4-4-4-4-|
--7--7--7--7--7--7--|--4--4-4-4-4-4--4-4-4-4-|--4--4-4-4-4-4--4-4-4-4-|
--5--5--5--5--5--5--|--2--2-2-2-2-2--2-2-2-2-|--2--2-2-2-2-2--2-2-2-2-|

------------------------|------------------------|------------------------|
------------------------|------------------------|------------------------|
--4--4-4-4-4-4--4-4-4-4-|--4--4-4-4-4-4--4-4-4-4-|------------------------|
--4--4-4-4-4-4--4-4-4-4-|--4--4-4-4-4-4--4-4-4-4-|--4--4-4-4-4-4--4-4-4-4-|
--2--2-2-2-2-2--2-2-2-2-|--2--2-2-2-2-2--2-2-2-2-|--4--4-4-4-4-4--4-4-4-4-|
------------------------|------------------------|--2--2-2-2-2-2--2-2-2-2-|
 
------------------------|------------------------|------------------------|
------------------------|------------------------|------------------------|
------------------------|------------------------|------------------------|
--4--4-4-4-4-4--4-4-4-4-|--7--7-7-7-7-7--7-7-7-7-|--9--9-9-9-9-9--9-9-9-9-|
--4--4-4-4-4-4--4-4-4-4-|--7--7-7-7-7-7--7-7-7-7-|--9--9-9-9-9-9--9-9-9-9-|
--2--2-2-2-2-2--2-2-2-2-|--5--5-5-5-5-5--5-5-5-5-|--7--7-7-7-7-7--7-7-7-7-|
                      
--------------------|
--------------------|
--------------------|
--7-----------------|
--7--DEJENLO SONAR--|
--5-----------------|

BREAK
PP:
G             A 
y me haria feliz
            D
que mi cantar
   Bm       G            A 
te haga sentir muy especial
         D
que mi cantar
    Bm           Em
te pueda dar placer
                   F#m
y asi juntos envejecer
 F#m-Bm-A   G
mas no pude hacerte feliz
A               D    F#m - Bm -  G
ya decidi partir


 G         Em
vamos a continuar
                A 
con alegría y felicidad
              Em
vamos a continuar
                 G
con nuestra aflicción
A              D
nuestra aflicción...

SOLO
PP TOCA: D,F#m,Bm,G X4 Y ACABA EN D

R2D2:
simbologia:
br: Bend release
b:bend
\:slide
pbr pre-bend release

------------------|-----------------|--------------------------|
--5-------7-------|--9------12------|--14----14-12-12----12-10-|
--7b------9b------|-----------------|--------------------------|
------------------|-----------------|--------------------------|
------------------|-----------------|--------------------------|
------------------|-----------------|--------------------------|

--------------------|-----11br~-----11----------|
--9--9--9--9--9--9--|--9----------------12------|
--------------------|-----------------------13--|
--------------------|---------------------------|
--------------------|---------------------------|
--------------------|---------------------------|

-----11br~-----11----------|-----11br~-----11----------|
-------------------12------|-------------------12------|
--L--------------------13--|--L------------------------|
---------------------------|-----------------------13--|
---------------------------|---------------------------|
---------------------------|---------------------------|
       
-----11br~-----11----------|------------------|--4--------7--------|
-------------------12------|--5-------7-------|--7b------10b~------|
---------------------------|--7b------9b------|--------------------|
--L--------------------13--|------------------|--------------------|
---------------------------|------------------|--------------------|
---------------------------|------------------|--------------------|
 
--7----7-5-4----4-2-|--0----0------------|-----14b~----14--12------|
--------------------|--------------------|---------------------12--|
--------------------|---------6-4--4--6--|--L----------------------|
--------------------|--------------------|-------------------------|
--------------------|--------------------|-------------------------|
--------------------|--------------------|-------------------------|

-----14b~----14--12------|-----14b~----14--12------|
--L------------------12--|--L----------------------|
-------------------------|---------------------13--|
-------------------------|-------------------------|
-------------------------|-------------------------|
-------------------------|-------------------------|

-----14b~----14--12------|------------------|--7~----------------|
-------------------------|--9----9--7----9--|--------9-----------|
--L------------------13--|------------------|-----------9~----9--|
-------------------------|------------------|--------------------|
-------------------------|------------------|--------------------|
-------------------------|------------------|--------------------|

------------------16-|--19---------------------|
---------------17----|--------17---------------|
--8~----9------------|-----------16-9~----9\~--|
---------------------|-------------------------|
---------------------|-------------------------|
---------------------|-------------------------|

-----11br~-----11----------|-----11b~----11----------|
-------------------12------|-----------------12------|
-----------------------13--|--L------------------13--|
---------------------------|-------------------------|
---------------------------|-------------------------|
---------------------------|-------------------------|

-----11b~----11----------|-----11br~-----11----------|
-----------------12------|-------------------12------|
--L----------------------|---------------------------|
---------------------13--|--L--------------------13--|
-------------------------|---------------------------|
-------------------------|---------------------------|
  
--12----11--12----11--|--12----11--12--------------|--12----11--12----11--|
----------------------|----------------------12-14-|----------------------|
----------------------|----------------11-13-------|----------------------|
----------------------|----------------------------|----------------------|
----------------------|----------------------------|----------------------|
----------------------|----------------------------|----------------------|
       
--14pbr-----------14-12-|-----------------|---------------|---------------|
------------------------|--12~------------|---------------|---------------|
------------------------|-----------------|---------------|---------------|
------------------------|-----------------|---------------|---------------|
------------------------|-----------------|---------------|---------------|
------------------------|-----------------|---------------|---------------|


DUDAS,COMENTARIOS Y/O MENTADAS DE MADRE AL CORREO: panda_vetealaverga@hotmail.com



Tap to rate this tab
# A B C D E F G H I J K L M N O P Q R S T U V W X Y Z