Song name
# A B C D E F G H I J K L M N O P Q R S T U V W X Y Z

Panda - Procedimientos Para Llegar A Un Comun Acuerdo tab

Bueno pues aquí les dejo el tab de “procedimientos para llegar a un común acuerdo” . atte: Pandoso
Afinación en bemol.

Busquen el ritmo.
Intro: Guitarra 1
Riff 1
eb|-0---0--0--0---0--0--0---0--0--0-0-0-|-0---0--0--0---0--0--0---0--0--0-0-0---|
Bb|-1---0--0--1---0--0--1---0--0--1-1-1-|-1---1--1--1---1--1--1---1--1--1-1-1---|
Gb|-2---2--2--2---2--2--2---2--2--2-2-2-|-2---2--2--2---2--2--2---2--2--2-2-2---|
Db|-2---2--2--2---2--2--2---2--2--2-2-2-|-3---2--2--3---2--2--3---2--2--3-3-3---|
Ab|-0---0--0--0---0--0--0---0--0--0-0-0-|---------------------------------------|
Eb|-------------------------------------|--------------------------------------|x4

Yo se que soy poco superficial
Y que me manejo en la promiscuidad
Si, te voy a hablar con la verdad
(se que quieres, yo también, te pongo a sudar y lo finges bien)
(si quieres prudencia a nadie le diré)
Para no perder el tiempo más.
(y con elegancia yo te lo daré…)

Coro:
Guitarra 2
eb|-13-12-12-------------13-13-12-12-------------13-|
Bb|----------10-10-10-10-------------10-10-10-10----|
Gb|-------------------------------------------------|
Db|-------------------------------------------------|
Ab|-------------------------------------------------|
Eb|-------------------------------------------------|
Guitarra 1	                                    |
eb|-------------------------------------------------|
Bb|-------------------------------------------------|
Gb|-------------------------------------------------|
Db|--3---3---3---3---3---3---3---3---3---3---3---3--|
Ab|--3---3---3---3---3---3---3---3---3---3---3---3--|
Eb|--1---1---1---1---1---1---1---1---1---1---1---1--|

G2	
eb|-13-12-12-------------13-13-12-12-------------13-|
Bb|----------13-13-13-13-------------13-13-13-13----|
Gb|-------------------------------------------------|
Db|-------------------------------------------------|
Ab|-------------------------------------------------|
Eb|-------------------------------------------------|
G1	                                            |
eb|-------------------------------------------------|
Bb|-------------------------------------------------|
Gb|--5---5---5---5---5---5---5---5---5---5---5---5--|
Db|--5---5---5---5---5---5---5---5---5---5---5---5--|
Ab|--3---3---3---3---3---3---3---3---3---3---3---3--|
Eb|-------------------------------------------------|
 


G2
eb|-13-12-12-------------13-13-12-12-------------13-|
Bb|----------10-10-10-10-------------10-10-10-10----|
Gb|-------------------------------------------------|
Db|-------------------------------------------------|
Ab|-------------------------------------------------|
Eb|-------------------------------------------------|
G1	                                            |
eb|-------------------------------------------------|
Bb|-------------------------------------------------|
Gb|-------------------------------------------------|
Db|--3---3---3---3---3---3---3---3---3---3---3---3--|
Ab|--3---3---3---3---3---3---3---3---3---3---3---3--|
Eb|--1---1---1---1---1---1---1---1---1---1---1---1--|

G2
eb|-13-12-12------------------------------------13--|
Bb|----------13-13-13-13-15-15-13-13-12-12-12-12----|
Gb|-------------------------------------------------|
Db|-------------------------------------------------|
Ab|-------------------------------------------------|
Eb|-------------------------------------------------|
G1	                                            |
eb|-------------------------------------------------|
Bb|-------------------------------------------------|
Gb|-------------------------------------------------|
Db|--7---7---7---7---7---7---5---5---5---5---5---5--|
Ab|--7---7---7---7---7---7---5---5---5---5---5---5--|
Eb|--5---5---5---5---5---5---3---3---3---3---3---3--|

Sé que me quieres tener
Y yo te prometo
Prometo no hablarte de amor.

Guitarra 2
eb|-13-12-12-------------13-13-12-12-------------13-|
Bb|----------10-10-10-10-------------10-10-10-10----|
Gb|-------------------------------------------------|
Db|-------------------------------------------------|
Ab|-------------------------------------------------|
Eb|-------------------------------------------------|
Guitarra 1	                                    |
eb|-------------------------------------------------|
Bb|-------------------------------------------------|
Gb|-------------------------------------------------|
Db|--3---3---3---3---3---3---3---3---3---3---3---3--|
Ab|--3---3---3---3---3---3---3---3---3---3---3---3--|
Eb|--1---1---1---1---1---1---1---1---1---1---1---1--|

G2	
eb|-13-12-12-------------13-13-12-12-------------13-|
Bb|----------13-13-13-13-------------13-13-13-13----|
Gb|-------------------------------------------------|
Db|-------------------------------------------------|
Ab|-------------------------------------------------|
Eb|-------------------------------------------------|
G1	                                            |
eb|-------------------------------------------------|
Bb|-------------------------------------------------|
Gb|--5---5---5---5---5---5---5---5---5---5---5---5--|
Db|--5---5---5---5---5---5---5---5---5---5---5---5--|
Ab|--3---3---3---3---3---3---3---3---3---3---3---3--|
Eb|-------------------------------------------------|

G2
eb|-13-12-12-------------13-13-12-12-------------13-|
Bb|----------10-10-10-10-------------10-10-10-10----|
Gb|-------------------------------------------------|
Db|-------------------------------------------------|
Ab|-------------------------------------------------|
Eb|-------------------------------------------------|
G1	                                            |
eb|-------------------------------------------------|
Bb|-------------------------------------------------|
Gb|-------------------------------------------------|
Db|--3---3---3---3---3---3---3---3---3---3---3---3--|
Ab|--3---3---3---3---3---3---3---3---3---3---3---3--|
Eb|--1---1---1---1---1---1---1---1---1---1---1---1--|

G2
eb|-13-12-12------------------------------------13--|
Bb|----------13-13-13-13-15-15-13-13-12-12-12-12----|
Gb|-------------------------------------------------|
Db|-------------------------------------------------|
Ab|-------------------------------------------------|
Eb|-------------------------------------------------|
G1	                                            |
eb|-------------------------------------------------|
Bb|-------------------------------------------------|
Gb|-------------------------------------------------|
Db|--7---7---7---7---7---7---5---5---5---5---5---5--|
Ab|--7---7---7---7---7---7---5---5---5---5---5---5--|
Eb|--5---5---5---5---5---5---3---3---3---3---3---3--|

Me quieres tener
Tu cuerpo descomunal
Sin indumentaria
Lo quiero con todo respeto palpar.

Guitarra 1
eb|-0---0--0--0---0--0--0---0--0--0-0-0-|-0---0--0--0---0--0--0---0--0--0-0-0---|
Bb|-1---0--0--1---0--0--1---0--0--1-1-1-|-1---1--1--1---1--1--1---1--1--1-1-1---|
Gb|-2---2--2--2---2--2--2---2--2--2-2-2-|-2---2--2--2---2--2--2---2--2--2-2-2---|
Db|-2---2--2--2---2--2--2---2--2--2-2-2-|-3---2--2--3---2--2--3---2--2--3-3-3---|
Ab|-0---0--0--0---0--0--0---0--0--0-0-0-|---------------------------------------|
Eb|-------------------------------------|--------------------------------------|x2
Guitarra 2 (escuchen bien esta parte)
eb|-----------------------------------------------------------------------------|
Bb|--13---13/10----10--12/13---13---13/10----10--12/13---13---13/10----10-------|
Gb|-----------------------------------------------------------------------------|
Db|-----------------------------------------------------------------------------|
Ab|-----------------------------------------------------------------------------|
Eb|-----------------------------------------------------------------------------|
 

Ah tu nombre olvidé yo preguntar
Dónde vives y cómo te gusta más.

Guitarra 1
eb|-0---0--0--0---0--0--0---0--0--0-0-0-|-0---0--0--0---0--0--0---0--0--0-0-0---|
Bb|-1---0--0--1---0--0--1---0--0--1-1-1-|-1---1--1--1---1--1--1---1--1--1-1-1---|
Gb|-2---2--2--2---2--2--2---2--2--2-2-2-|-2---2--2--2---2--2--2---2--2--2-2-2---|
Db|-2---2--2--2---2--2--2---2--2--2-2-2-|-3---2--2--3---2--2--3---2--2--3-3-3---|
Ab|-0---0--0--0---0--0--0---0--0--0-0-0-|---------------------------------------|
Eb|-------------------------------------|--------------------------------------|x2

(tengo que advertirte, tienes que saber, que al igual y no estaré al amanecer)
Quiero deja algo claro ya
(Crees que sólo te quiero para una vez, pero sabes qué, dos estaría bien)
Deseo hacerlo todo esto nada más.

-Se repite el coro-

Solo:
Guitarra 2
eb|-------------------------------------------------|
Bb|----13----13----13----13----13----13----13----13-|
Gb|-14----14----14----14----14----14----14----14----|
Db|-------------------------------------------------|
Ab|-------------------------------------------------|
Eb|-------------------------------------------------|
G1	                                            |
eb|-------------------------------------------------|
Bb|-------------------------------------------------|
Gb|--5----------------------------------------------|
Db|--5-------------------------------------------5--|
Ab|--3-------------------------------------------5--|
Eb|----------------------------------------------3--|

Guitarra 2
eb|-------------------------------------------------|
Bb|-----8---8---8---8-----10----10----10----10------|
Gb|---9---9---9---9----10----10----10----10---------|
Db|-------------------------------------------------|
Ab|-------------------------------------------------|
Eb|-------------------------------------------------|
G1	                                            |
eb|-------------------------------------------------|
Bb|-------------------------------------------------|
Gb|-------------------------------------------------|
Db|--3------------------2---------------------------|
Ab|--3------------------2---------------------------|
Eb|--1------------------0---------------------------|

Guitarra 2
eb|-------------------------------------------------|
Bb|----13----13----13----13----12----12----12----12-|
Gb|-14----14----14----14----12----12----12----12----|
Db|-------------------------------------------------|
Ab|-------------------------------------------------|
Eb|-------------------------------------------------|
G1	                                            |
eb|-------------------------------------------------|
Bb|-------------------------------------------------|
Gb|--5----------------------------------------------|
Db|--5--------------------5-------------------------|
Ab|--3--------------------5-------------------------|
Eb|-----------------------3-------------------------|

Guitarra 2
eb|-------------------------------------------------|
Bb|-----8---8---8---8-----10----10----10----10------|
Gb|---9---9---9---9----10----10----10----10---------|
Db|-------------------------------------------------|
Ab|-------------------------------------------------|
Eb|-------------------------------------------------|
G1	                                            |
eb|-------------------------------------------------|
Bb|-------------------------------------------------|
Gb|-------------------------------------------------|
Db|--2------------------3---------------------------|
Ab|--2------------------3---------------------------|
Eb|--0------------------1---------------------------|

Guitarra 2
eb|-------------------------------------------------|
Bb|----13----13----13----13----13----13----13----13-|
Gb|-14----14----14----14----14----14----14----14----|
Db|-------------------------------------------------|
Ab|-------------------------------------------------|
Eb|-------------------------------------------------|
G1	                                            |
eb|-------------------------------------------------|
Bb|-------------------------------------------------|
Gb|--5--5--5--5--5--5--5--5--5--5--5--5--5--5-------|
Db|--5--5--5--5--5--5--5--5--5--5--5--5--5--5----5--|
Ab|--3--3--3--3--3--3--3--3--3--3--3--3--3--3----5--|
Eb|----------------------------------------------3--|

Guitarra 2
eb|-------------------------------------------------|
Bb|-----8---8---8---8-----10----10----10----10------|
Gb|---9---9---9---9----10----10----10----10---------|
Db|-------------------------------------------------|
Ab|-------------------------------------------------|
Eb|-------------------------------------------------|
G1	                                            |
eb|-------------------------------------------------|
Bb|-------------------------------------------------|
Gb|-------------------------------------------------|
Db|--3--3--3--3--3--3---2--2--2--2--2--2--2--2------|
Ab|--3--3--3--3--3--3---2--2--2--2--2--2--2--2------|
Eb|--1--1--1--1--1--1---0--0--0--0--0--0--0--0------|

Guitarra 2
eb|-------------------------------------------------|
Bb|----13----13----13----13----12----12----12----12-|
Gb|-14----14----14----14----12----12----12----12----|
Db|-------------------------------------------------|
Ab|-------------------------------------------------|
Eb|-------------------------------------------------|
G1	                                            |
eb|-------------------------------------------------|
Bb|-------------------------------------------------|
Gb|--5--5--5--5--5--5--5----------------------------|
Db|--5--5--5--5--5--5--5--5--5--5--5--5--5--5--5--5-|
Ab|--3--3--3--3--3--3--3--5--5--5--5--5--5--5--5--5-|
Eb|-----------------------3--3--3--3--3--3--3--3--3-|

Guitarra 2
eb|-------------------------------------------------|
Bb|-----8---8---8---8-----10----10----10----10------|
Gb|---9---9---9---9----10----10----10----10---------|
Db|-------------------------------------------------|
Ab|-------------------------------------------------|
Eb|-------------------------------------------------|
G1	                                            |
eb|-------------------------------------------------|
Bb|-------------------------------------------------|
Gb|-------------------------------------------------|
Db|--2--2--2--2--2--2--2---3--3--3--3--3--3--3------|
Ab|--2--2--2--2--2--2--2---3--3--3--3--3--3--3------|
Eb|--0--0--0--0--0--0--0---1--1--1--1--1--1--1------|

Guitarra 2
eb|-------------------------------------------------|
Bb|----13----13----13----13----13----13----13----13-|
Gb|-14----14----14----14----14----14----14----14----|
Db|-------------------------------------------------|
Ab|-------------------------------------------------|
Eb|-------------------------------------------------|
G1	                                            |
eb|-------------------------------------------------|
Bb|-------------------------------------------------|
Gb|--5--5--5--5--5--5--5--5--5--5--5--5--5--5-------|
Db|--5--5--5--5--5--5--5--5--5--5--5--5--5--5----5--|
Ab|--3--3--3--3--3--3--3--3--3--3--3--3--3--3----5--|
Eb|----------------------------------------------3--|

Guitarra 2
eb|-------------------------------------------------|
Bb|-----8---8---8---8-----10----10----10----10------|
Gb|---9---9---9---9----10----10----10----10---------|
Db|-------------------------------------------------|
Ab|-------------------------------------------------|
Eb|-------------------------------------------------|
G1	                                            |
eb|-------------------------------------------------|
Bb|-------------------------------------------------|
Gb|-------------------------------------------------|
Db|--3--3--3--3--3--3---2--2--2--2--2--2--2--2------|
Ab|--3--3--3--3--3--3---2--2--2--2--2--2--2--2------|
Eb|--1--1--1--1--1--1---0--0--0--0--0--0--0--0------|

Guitarra 2
eb|-------------------------------------------------|
Bb|----13----13----13----13----12----12----12----12-|
Gb|-14----14----14----14----12----12----12----12----|
Db|-------------------------------------------------|
Ab|-------------------------------------------------|
Eb|-------------------------------------------------|
G1	                                            |
eb|-------------------------------------------------|
Bb|-------------------------------------------------|
Gb|--5--5--5--5--5--5--5----------------------------|
Db|--5--5--5--5--5--5--5--5--5--5--5--5--5--5--5--5-|
Ab|--3--3--3--3--3--3--3--5--5--5--5--5--5--5--5--5-|
Eb|-----------------------3--3--3--3--3--3--3--3--3-|

Guitarra 2
eb|-------------------------------------------------|
Bb|-----8---8---8---8-----10----10----10----10------|
Gb|---9---9---9---9----10----10----10----10---------|
Db|-------------------------------------------------|
Ab|-------------------------------------------------|
Eb|-------------------------------------------------|
G1	                                            |
eb|-------------------------------------------------|
Bb|-------------------------------------------------|
Gb|-------------------------------------------------|
Db|--2--2--2--2--2--2--2---3--3--3--3--3--3--3------|
Ab|--2--2--2--2--2--2--2---3--3--3--3--3--3--3------|
Eb|--0--0--0--0--0--0--0---1--1--1--1--1--1--1------|

Guitarra 1
eb|-0---0--0--0---0--0--0---0--0--0-0-0-|-0---0--0--0---0--0--0---0--0--0-0-0---|
Bb|-1---0--0--1---0--0--1---0--0--1-1-1-|-1---1--1--1---1--1--1---1--1--1-1-1---|
Gb|-2---2--2--2---2--2--2---2--2--2-2-2-|-2---2--2--2---2--2--2---2--2--2-2-2---|
Db|-2---2--2--2---2--2--2---2--2--2-2-2-|-3---2--2--3---2--2--3---2--2--3-3-3---|
Ab|-0---0--0--0---0--0--0---0--0--0-0-0-|---------------------------------------|
Eb|-------------------------------------|--------------------------------------|x2

Tengo que advertirte, tienes que saber
Que al igual y no estaré al amanecer
Crees que solo te quiero para una vez
Pero sabes qué, dos estaría bien…

-se repite el coro-

Solo final:
Guitarra 2
eb|---------|------|------|-10--------------|-----------|
Bb|--13-10--|--12--|--13--|-----13---12-----|---10------|
Gb|---------|------|------|-----------------|-----------|
Db|---------|------|------|-----------------|-----------|
Ab|---------|------|------|-----------------|-----------|
Eb|---------|------|------|-----------------|-----------|
G1	                                                |
eb|-----------------------------------------------------|
Bb|-----------------------------------------------------|
Gb|-----------------------------------------------------|
Db|--5~/--------------3~/-----------------------5~/-----|
Ab|--5~/--------------3~/-----------------------5~/-----|
Eb|--3~/--------------1~/-----------------------3~/-----|

G2	
eb|-----|------|-10-----------|-------|-----------------|
Bb|-12--|--13--|-----13---12--|--10---|-------12--------|
Gb|-----|------|--------------|-------|-----------------|
Db|-----|------|--------------|-------|-----------------|
Ab|-----|------|--------------|-------|-----------------|
Eb|-----|------|--------------|-------|-----------------|
G1 (aquí hace un scratch)	                        |
eb|-----------------------------------------------------|
Bb|-----------------------------------------------------|
Gb|-----------------------------------------------------|
Db|--3~/------------------------------------------------|
Ab|--3~/------------------------------------------------|
Eb|--1~/------------------------------------------------|
G2
eb|------|--10--------------|---------------------------|
Bb|--13--|-------13----12---|--10~----------------------|
Gb|------|------------------|---------------------------|
Db|------|------------------|---------------------------|
Ab|------|------------------|---------------------------|
Eb|------|------------------|---------------------------|
 
 / slide
 ~ vibrato o dejar sonar.
 Sale pues, ojala les guste XD lml.

Tap to rate this tab
 
# A B C D E F G H I J K L M N O P Q R S T U V W X Y Z