Panda - Gripa Y Mundial tab

-----Esta rola es otra de mis favs de panda,
y despues de oirla en vivo en el baile del
recuerdo    decidi sacarla-----------
Por: David Magallanes
----Intro----------------
(ok esto va despues del intro de bajo)
(Guitarra 1)
e|-----------------------------|
b|-----------------------------|
g|------4-3--6-4-3---------3---|
d|-3/4-------------6-6-6-6---6-|
a|-----------------------------|
E|-----------------------------|

e|-------------------9---------|
b|---------------7-7---7-------|
g|---------4-3-6---------------|
d|-3-6--4---------------(X2)---|
a|-----------------------------|
E|-----------------------------|

(Guitarra 2)
e|-----------------------------|
b|-----------------------------|
g|------------6-6-6-6-6--------|
d|-4-4-4-4-4--6-6-6-6-4--------|
a|-4-4-4-4-4--4-4-4-4-4--------|
E|-2-2-2-2-2-------------------|

e|--------------------(X2)-----|
b|-----------------------------|
g|------------4-4-4-4--6-6-6---|
d|-4-4-4-4-4--4-4-4-4--6-6-6---|
a|-4-4-4-4-4--2-2-2-2--4-4-4---|
E|-2-2-2-2-2-------------------|

--------Cuerpo-----------------
(Aqui toca los acordes con ritmo de SKA en clean)
"Creo que las gringas me pegaron la gripa......"

(Guitarra 1 o 2 o las 2)
e|-----------------------------|
b|---(CLEAN CON RITMO SKA)-----|
g|------------6-6-6-6-6--------|
d|-4-4-4-4-4--6-6-6-6-4--------|
a|-4-4-4-4-4--4-4-4-4-4--------|
E|-2-2-2-2-2-------------------|

e|--------------------(X2)-----|
b|-----------------------------|
g|------------4-4-4-4--6-6-6---|
d|-4-4-4-4-4--4-4-4-4--6-6-6---|
a|-4-4-4-4-4--2-2-2-2--4-4-4---|
E|-2-2-2-2-2-------------------|

--OK AQUI TOCAN LA INTRO DE NUEVO-----
--ANTES DEL CORO TOCAN EL CUERPO OTRA VEZ--


--------------Coro 1------------
(esta parte ya va con la disto)

e|------------(X4)-------------|
b|-----------------------------|
g|--------3-3-3--4-4-4--6-6-6--|
d|-4-4-4--3-3-3--4-4-4--6-6-6--|
a|-4-4-4--1-1-1--2-2-2--4-4-4--|
E|-2-2-2-----------------------|

----VUELVEN A TOCAR EL CUERPO---
"Me la paso en el cuarto viendo el mundialito..."

-----Bridge-----------------
"y jugamos cabezitas......"
(Guitarra 1 o 2)
e|-----------------------------|
b|-----------------------------|
g|-8-8-8-8--6-6-6-6--4-4-4-4---|
d|-8-8-8-8--6-6-6-6--4-4-4-4---|
a|-6-6-6-6--4-4-4-4--2-2-2-2---|
E|-----------------------------|

e|----------|
b|----------|
g|-4-3-4-3--|
d|-4-3-4-3--|
a|-2-1-2-1--|
E|----------|

e|-----------------------------|
b|-----------------------------|
g|-8-8-8-8--6-6-6-6--4-4-4-4-4-|
d|-8-8-8-8--6-6-6-6--4-4-4-4-4-|
a|-6-6-6-6--4-4-4-4--2-2-2-2-2-|
E|-----------------------------|

-----Coro 2-----------------
(este es igual que el uno
pero un tono mas arriba)

e|---------(x4)----------------|
b|-----------------------------|
g|--------5-5-5--6-6-6--8-8-8--|
d|-6-6-6--5-5-5--6-6-6--8-8-8--|
a|-6-6-6--3-3-3--4-4-4--6-6-6--|
E|-4-4-4-----------------------|

---bridge de bajo--------------|
-----Coro 3--------------------|
"brisa na na na na. brisa, uoh uoooo...."

e|-------(X2)------------------|
b|-----------------------------|
g|--------5-5-5--6-6-6--8-8-8--|
d|-6-6-6--5-5-5--6-6-6--8-8-8--|
a|-6-6-6--3-3-3--4-4-4--6-6-6--|
E|-4-4-4-----------------------|
pm......  .....  .....  ......

e|---------(x8)----------------|
b|-----------------------------|
g|--------5-5-5--6-6-6--8-8-8--|
d|-6-6-6--5-5-5--6-6-6--8-8-8--|
a|-6-6-6--3-3-3--4-4-4--6-6-6--|
E|-4-4-4-----------------------|

e|----
b|----
g|----
d|-6--
a|-6--
E|-4-- (Y lo dejan sonar)

Listo esta re facil la rola, bueno dudas sugerencias en jdmagallanes@hotmail.com y 
desde Monterrey, Nuevo Leon
Tap to rate this tab
 
# A B C D E F G H I J K L M N O P Q R S T U V W X Y Z