Song name
# A B C D E F G H I J K L M N O P Q R S T U V W X Y Z

Panda - Espejismos Y Visiones tab

este es el tab de Espejismos y Visones en acustica
la tablura la saque yo asi que si me quieren rallar toda
la madre este es mi correo fabri_1608@hotmail.com asi
bueno el intro
0-15 seg. afinación Estandard 


e-2--6-4-6-/-1-1-2-1---6-4-6/-2--6-4-6/
B----------/---------4------/---------/
G----------/----------------/---------/
D----------/----------------/---------/
A----------/----------------/---------/
E----------/----------------/---------/

e-2--6-4-6-/-1-1-2-1---6-4-6/---------/
B----------/---------4------/-4--1-2-1/
G----------/----------------/---------/
D----------/----------------/---------/
A----------/----------------/---------/
E----------/----------------/---------/

Verso 15-45 seg. 


e----0------/----0------/---3-------/---0-------/ 
B------3--0-/-----3--0--/--3--3--0--/--0--3--0--/
G---4------2/--4-------2/----------2/----------2/ esto x4
C-----------/-----------/-----------/-----------/
A-----------/-3---------/-----------/-2---------/
E-0---------/-----------/-3---------/-----------/

pre coro x2 Am F C E rasgueo 
(este ejemplo es para todos los acordes
mencionados en Pre-coro)

e----x-----x-/
B---1xx---1xx/
G---2xx---2xx/
C---2xx---2xx/
A----xx----x-/
E----x-----x-/ es un ejmeplo
de como de debe de tocar

Am             F
no me importa que me crean
C                  E
solamenta importa que mis 
Am          F        
espejismos mis visones
C              E         
tengan fe en miii oh ho ay

Coro aqui es rasgueo Abajo=ab arriba =arr  rasgueo ab,ab,arr,ab,ab,ab

Am                F
ay momentos que deseo
  C           E
ignorarlas cosas que 
Am         F       C 
ignoraba ayer ah ha ayer
    E
que ignoraba ayer  

INTRO

VERSO 

PRECORO

CORO

Y 

CORO 

CORO 
final tantan termina en Am 
 
acordes que se usaron 

Am      F    C    E
e-----/----/-----/-----/
B--1--/--1-/--1--/-----/ espero que les sirva si no chinguen su puta cola 
G--2--/--2-/-----/--1--/
C--2--/--3-/--2--/--2--/
A-----/--3-/--3--/--2--/
E-----/----/-----/-----/
Tap to rate this tab
 
# A B C D E F G H I J K L M N O P Q R S T U V W X Y Z