Panda - Hola tab

La guitarra va afinada en Bemol (como dice Arturo en el DVD de Para Ti Con Desprecio)
El ritmo, pues escuchen la canción.

Panda
Hola!

Intro (Lead Guitar):

----------------------------------------------------------------|
----------------------------------------------------------------|
----9---9-9-----------------------------------------------------|
----9---9-9--6-7---9---9-9-------11---11-11--------7-7---9-9----|
----7---7-7--------9---9-9--6-7--11---11-11--7-9---7-7---9-9----|
-------------------7---7-7-------9-----9-9---------5-5---7-7----|

Tmb hay intro de la 2da Guitarra q empieza después de que la 1ra guitarra hace el intro 
dos veces, pero ahorita me da weba/no puedo sacarlo, empieza con

--
--
--
-2
-2
-0

Versos: (Somos PANDA!....)
----------------------------------------------------------------------|
----------------------------------------------------------------------|
----------------------------------------------------------------  x 8-|
----2--2-----2--4--4-----4-7-7------7-9-9------9----------------------|
----2--2-----2--4--4-----4-7-7------7-9-9------9----------------------|
----0--0-----0--2--2-----2-5-5------5-7-7------7----------------------|

Coro:  (Te estoy avisando…)
-----------------------------------------------------------------------|
-----------------------------------------------------------------------|
---9-9-9-9-9-9---------------------------------------------------------|
---9-9-9-9-9-9---9-9-9-9-9-9----11-11-11-11-11-11----7-7-7----9-9-9----|
---7-7-7-7-7-7---9-9-9-9-9-9----11-11-11-11-11-11----7-7-7----9-9-9----|
-----------------7-7-7-7-7-7----9--9--9--9--9--9-----5-5-5----7-7-7----|

Intro

Verso

Coro

Interlude: ([El wei de Plastilina Mosh]Pinche Panda Mush Style??…)

---------------------------------------------------------------|
---------------------------------------------------------------|
---------------------------------------------------------------|
-6~-6---7---6--------------------------------------------------| x2
-----------------7---9----7----6------4------6~----------------|
---------------------------------------------------------------|


Coro

--END--------------------------------------------------------------


Dedicada al Charolastra ya q fue la primera rola que nos enseñó, por allá del año 1999/2000

LMR2D2
Tap to rate this tab
 
# A B C D E F G H I J K L M N O P Q R S T U V W X Y Z