Panda - Nuestra Afliccion tab

Nuestra aflicción Panda
espero que les guste

(Capo on the 2nd fret)
(Ceja en el segundo traste)


      D#                              Gm                            
      ^                               ^                             
      H.              H.              H.              H.            
D#||--2------------|--L------------|--2------------|--L------------|
A#||--3------------|--L------------|--2------------|--L------------|
F#||--2------------|--L------------|--2------------|--L------------|
C#||--0------------|--L------------|--4------------|--L------------|
G#||--0------------|--L------------|--4------------|--L------------|
D#||---------------|---------------|--2------------|--L------------|


  Cm                              G#                             
  ^                               ^                              
  H.              H.              H.              Q.     Q.      
--2------------|--L------------|--3------------|--L-------------|
--3------------|--L------------|--3------------|--L-------------|
--4------------|--L------------|--0------------|--L-------------|
--4------------|--L------------|--0------------|--L-------------|
--2------------|--L------------|--2------------|--L-------------|
---------------|---------------|--3------------|--L------2------|


  Fm                              A#                              Fm            
  ^                               ^                               ^             
  H.              H.              H.              H.              H.            
--0------------|--L------------|--0------------|--L------------|--0---------|
--0------------|--L------------|--2------------|--L------------|--0---------|
--0------------|--L------------|--2------------|--L------------|--0---------|
--2------------|--L------------|--2------------|--L------------|--2---------|
--2------------|--L------------|--0------------|--L------------|--2---------|
--0------------|--L------------|---------------|---------------|--0---------|


                  G#              A#              D#                            
                  ^               ^               ^                             
  H.              H.              H.              H.              H.            
---------------|--3------------|--0------------|--2------------|--L------------|
--L------------|--3------------|--2------------|--3------------|--L------------|
--L------------|--0------------|--2------------|--2------------|--L------------|
--L------------|--0------------|--2------------|--0------------|--L------------|
--L------------|--2------------|--0------------|--0------------|--L------------|
--L------------|--3------------|---------------|---------------|---------------|


  Gm                              Cm                              G#            
  ^                               ^                               ^             
  H.              H.              H.              H.              H.            
--2------------|--L------------|--2------------|--L------------|--3------------|
--2------------|--L------------|--3------------|--L------------|--3------------|
--2------------|--L------------|--4------------|--L------------|--0------------|
--4------------|--L------------|--4------------|--L------------|--0------------|
--4------------|--L------------|--2------------|--L------------|--2------------|
--2------------|--L------------|---------------|---------------|--3------------|


                   Fm                              A#            
                   ^                               ^             
  Q.     Q.        H.              H.              H.            
--L-------------|--0------------|--L------------|--0------------|
--L-------------|--0------------|--L------------|--2------------|
--L-------------|--0------------|--L------------|--2------------|
--L-------------|--2------------|--L------------|--2------------|
--L-------------|--2------------|--L------------|--0------------|
--L------2------|--0------------|--L------------|---------------|


                  Fm                              G#              A#            
                  ^                               ^               ^             
  H.              H.              H.              H.              H.            
--L------------|--0------------|--L------------|--3------------|--0------------|
--L------------|--0------------|--L------------|--3------------|--2------------|
--L------------|--0------------|--L------------|--0------------|--2------------|
--L------------|--2------------|--L------------|--0------------|--2------------|
--L------------|--2------------|--L------------|--2------------|--0------------|
---------------|--0------------|--L------------|--3------------|---------------|


  D#                                                Gm                     
  ^  v                                                                     
  E  S S S S E  S S S S    E  S S S S E  S S S S    E  S S S S E  S S S S  
------------------------|------------------------|--2--2-2-2-2-2--2-2-2-2-|
--3--3-3-3-3-3--3-3-3-3-|--3--3-3-3-3-3--3-3-3-3-|--2--2-2-2-2-2--2-2-2-2-|
--2--2-2-2-2-2--2-2-2-2-|--2--2-2-2-2-2--2-2-2-2-|--2--2-2-2-2-2--2-2-2-2-|
--0--0-0-0-0-0--0-0-0-0-|--0--0-0-0-0-0--0-0-0-0-|--4--4-4-4-4-4--4-4-4-4-|
--0--0-0-0-0-0--0-0-0-0-|--0--0-0-0-0-0--0-0-0-0-|--4--4-4-4-4-4--4-4-4-4-|
------------------------|------------------------|--2--2-2-2-2-2--2-2-2-2-|


                           Gm                                              
  E  S S S S E  S S S S    E  S S S S E  S S S S    E  S S S S E  S S S S  
--2--2-2-2-2-2--2-2-2-2-|--2--2-2-2-2-2--2-2-2-2-|--2--2-2-2-2-2--2-2-2-2-|
--2--2-2-2-2-2--2-2-2-2-|--3--3-3-3-3-3--3-3-3-3-|--3--3-3-3-3-3--3-3-3-3-|
--2--2-2-2-2-2--2-2-2-2-|--4--4-4-4-4-4--4-4-4-4-|--4--4-4-4-4-4--4-4-4-4-|
--4--4-4-4-4-4--4-4-4-4-|--4--4-4-4-4-4--4-4-4-4-|--4--4-4-4-4-4--4-4-4-4-|
--4--4-4-4-4-4--4-4-4-4-|--2--2-2-2-2-2--2-2-2-2-|--2--2-2-2-2-2--2-2-2-2-|
--2--2-2-2-2-2--2-2-2-2-|--2--2-2-2-2-2--2-2-2-2-|--2--2-2-2-2-2--2-2-2-2-|


  G#                                                Fm                     
  E  S S S S E  S S S S    E  S S S S E  S S S S    E  S S S S E  S S S S  
--3--3-3-3-3-3--3-3-3-3-|--3--3-3-3-3-3--3-3-3-3-|--0--0-0-0-0-0--0-0-0-0-|
--3--3-3-3-3-3--3-3-3-3-|--3--3-3-3-3-3--3-3-3-3-|--0--0-0-0-0-0--0-0-0-0-|
--0--0-0-0-0-0--0-0-0-0-|--0--0-0-0-0-0--0-0-0-0-|--0--0-0-0-0-0--0-0-0-0-|
--0--0-0-0-0-0--0-0-0-0-|--0--0-0-0-0-0--0-0-0-0-|--2--2-2-2-2-2--2-2-2-2-|
--2--2-2-2-2-2--2-2-2-2-|--2--2-2-2-2-2--2-2-2-2-|--2--2-2-2-2-2--2-2-2-2-|
--3--3-3-3-3-3--3-3-3-3-|--3--3-3-3-3-3--3-3-3-3-|--0--0-0-0-0-0--0-0-0-0-|


                           A#                                              
  E  S S S S E  S S S S    E  S S S S E  S S S S    E  S S S S E  S S S S  
--0--0-0-0-0-0--0-0-0-0-|--0--0-0-0-0-0--0-0-0-0-|--0--0-0-0-0-0--0-0-0-0-|
--0--0-0-0-0-0--0-0-0-0-|--2--2-2-2-2-2--2-2-2-2-|--2--2-2-2-2-2--2-2-2-2-|
--0--0-0-0-0-0--0-0-0-0-|--2--2-2-2-2-2--2-2-2-2-|--2--2-2-2-2-2--2-2-2-2-|
--2--2-2-2-2-2--2-2-2-2-|--2--2-2-2-2-2--2-2-2-2-|--2--2-2-2-2-2--2-2-2-2-|
--2--2-2-2-2-2--2-2-2-2-|--0--0-0-0-0-0--0-0-0-0-|--0--0-0-0-0-0--0-0-0-0-|
--0--0-0-0-0-0--0-0-0-0-|--0--0-0-0-0-0--0-0-0-0-|--0--0-0-0-0-0--0-0-0-0-|


  Fm                                                G#                     
  E  S S S S E  S S S S    E  S S S S E  S S S S    E  S S S S E  S S S S  
--0--0-0-0-0-0--0-0-0-0-|--0--0-0-0-0-0--0-0-0-0-|--3--3-3-3-3-3--3-3-3-3-|
--0--0-0-0-0-0--0-0-0-0-|--0--0-0-0-0-0--0-0-0-0-|--3--3-3-3-3-3--3-3-3-3-|
--0--0-0-0-0-0--0-0-0-0-|--0--0-0-0-0-0--0-0-0-0-|--0--0-0-0-0-0--0-0-0-0-|
--2--2-2-2-2-2--2-2-2-2-|--2--2-2-2-2-2--2-2-2-2-|--0--0-0-0-0-0--0-0-0-0-|
--2--2-2-2-2-2--2-2-2-2-|--2--2-2-2-2-2--2-2-2-2-|--2--2-2-2-2-2--2-2-2-2-|
--0--0-0-0-0-0--0-0-0-0-|--0--0-0-0-0-0--0-0-0-0-|--3--3-3-3-3-3--3-3-3-3-|


  A#                  D#                                              
  E  E  E  E  Q       E  S S S S E  S S S S    E  S S S S E  S S S S  
--0--0--0--0-------|--2--2-2-2-2-2--2-2-2-2-|--2--2-2-2-2-2--2-2-2-2-|
--2--2--2--2-------|--3--3-3-3-3-3--3-3-3-3-|--3--3-3-3-3-3--3-3-3-3-|
--2--2--2--2-------|--2--2-2-2-2-2--2-2-2-2-|--2--2-2-2-2-2--2-2-2-2-|
--2--2--2--2-------|--0--0-0-0-0-0--0-0-0-0-|--0--0-0-0-0-0--0-0-0-0-|
--0--0--0--0-------|--0--0-0-0-0-0--0-0-0-0-|--0--0-0-0-0-0--0-0-0-0-|
--0--0--0--0-------|------------------------|------------------------|


  Gm                                                Cm                 
  E  S S S S E  S S S S    E  S S S S E  S S S S    E  E  E  E  E  E   
--2--2-2-2-2-2--2-2-2-2-|--2--2-2-2-2-2--2-2-2-2-|--2--2--2--2--2--2--|
--2--2-2-2-2-2--2-2-2-2-|--2--2-2-2-2-2--2-2-2-2-|--3--3--3--3--3--3--|
--2--2-2-2-2-2--2-2-2-2-|--2--2-2-2-2-2--2-2-2-2-|--4--4--4--4--4--4--|
--4--4-4-4-4-4--4-4-4-4-|--4--4-4-4-4-4--4-4-4-4-|--4--4--4--4--4--4--|
--4--4-4-4-4-4--4-4-4-4-|--4--4-4-4-4-4--4-4-4-4-|--2--2--2--2--2--2--|
--2--2-2-2-2-2--2-2-2-2-|--2--2-2-2-2-2--2-2-2-2-|--2--2--2--2--2--2--|


                       G#                                      
  E  E  E  E  E  E     E  E  E  E  E  E     E  E  E  E  E  E   
--2--2--2--2--2--2--|--3--3--3--3--3--3--|--3--3--3--3--3--3--|
--3--3--3--3--3--3--|--3--3--3--3--3--3--|--3--3--3--3--3--3--|
--4--4--4--4--4--4--|--0--0--0--0--0--0--|--0--0--0--0--0--0--|
--4--4--4--4--4--4--|--0--0--0--0--0--0--|--0--0--0--0--0--0--|
--2--2--2--2--2--2--|--2--2--2--2--2--2--|--2--2--2--2--2--2--|
--2--2--2--2--2--2--|--3--3--3--3--3--3--|--3--3--3--3--3--3--|


  D#                                                Gm                     
  E  S S S S E  S S S S    E  S S S S E  S S S S    E  S S S S E  S S S S  
--2--2-2-2-2-2--2-2-2-2-|--2--2-2-2-2-2--2-2-2-2-|--2--2-2-2-2-2--2-2-2-2-|
--3--3-3-3-3-3--3-3-3-3-|--3--3-3-3-3-3--3-3-3-3-|--2--2-2-2-2-2--2-2-2-2-|
--2--2-2-2-2-2--2-2-2-2-|--2--2-2-2-2-2--2-2-2-2-|--2--2-2-2-2-2--2-2-2-2-|
--0--0-0-0-0-0--0-0-0-0-|--0--0-0-0-0-0--0-0-0-0-|--4--4-4-4-4-4--4-4-4-4-|
--0--0-0-0-0-0--0-0-0-0-|--0--0-0-0-0-0--0-0-0-0-|--4--4-4-4-4-4--4-4-4-4-|
------------------------|------------------------|--2--2-2-2-2-2--2-2-2-2-|


                           Cm                                      
  E  S S S S E  S S S S    E  E  E  E  E  E     E  E  E  E  E  E   
--2--2-2-2-2-2--2-2-2-2-|--2--2--2--2--2--2--|--2--2--2--2--2--2--|
--2--2-2-2-2-2--2-2-2-2-|--3--3--3--3--3--3--|--3--3--3--3--3--3--|
--2--2-2-2-2-2--2-2-2-2-|--4--4--4--4--4--4--|--4--4--4--4--4--4--|
--4--4-4-4-4-4--4-4-4-4-|--4--4--4--4--4--4--|--4--4--4--4--4--4--|
--4--4-4-4-4-4--4-4-4-4-|--2--2--2--2--2--2--|--2--2--2--2--2--2--|
--2--2-2-2-2-2--2-2-2-2-|--2--2--2--2--2--2--|--2--2--2--2--2--2--|


  G#                                        Fm                     
  E  E  E  E  E  E     E  E  E  E  E  E     E  S S S S E  S S S S  
--3--3--3--3--3--3--|--3--3--3--3--3--3--|--0--0-0-0-0-0--0-0-0-0-|
--3--3--3--3--3--3--|--3--3--3--3--3--3--|--0--0-0-0-0-0--0-0-0-0-|
--0--0--0--0--0--0--|--0--0--0--0--0--0--|--0--0-0-0-0-0--0-0-0-0-|
--0--0--0--0--0--0--|--0--0--0--0--0--0--|--2--2-2-2-2-2--2-2-2-2-|
--2--2--2--2--2--2--|--2--2--2--2--2--2--|--2--2-2-2-2-2--2-2-2-2-|
--3--3--3--3--3--3--|--3--3--3--3--3--3--|--0--0-0-0-0-0--0-0-0-0-|


                           A#                                              
  E  S S S S E  S S S S    E  S S S S E  S S S S    E  S S S S E  S S S S  
--0--0-0-0-0-0--0-0-0-0-|--0--0-0-0-0-0--0-0-0-0-|--0--0-0-0-0-0--0-0-0-0-|
--0--0-0-0-0-0--0-0-0-0-|--2--2-2-2-2-2--2-2-2-2-|--2--2-2-2-2-2--2-2-2-2-|
--0--0-0-0-0-0--0-0-0-0-|--2--2-2-2-2-2--2-2-2-2-|--2--2-2-2-2-2--2-2-2-2-|
--2--2-2-2-2-2--2-2-2-2-|--2--2-2-2-2-2--2-2-2-2-|--2--2-2-2-2-2--2-2-2-2-|
--2--2-2-2-2-2--2-2-2-2-|--0--0-0-0-0-0--0-0-0-0-|--0--0-0-0-0-0--0-0-0-0-|
--0--0-0-0-0-0--0-0-0-0-|--0--0-0-0-0-0--0-0-0-0-|--0--0-0-0-0-0--0-0-0-0-|


  Fm                                                G#                     
  E  S S S S E  S S S S    E  S S S S E  S S S S    E  S S S S E  S S S S  
--0--0-0-0-0-0--0-0-0-0-|--0--0-0-0-0-0--0-0-0-0-|--3--3-3-3-3-3--3-3-3-3-|
--0--0-0-0-0-0--0-0-0-0-|--0--0-0-0-0-0--0-0-0-0-|--0--0-0-0-0-0--0-0-0-0-|
--0--0-0-0-0-0--0-0-0-0-|--0--0-0-0-0-0--0-0-0-0-|--0--0-0-0-0-0--0-0-0-0-|
--2--2-2-2-2-2--2-2-2-2-|--2--2-2-2-2-2--2-2-2-2-|--0--0-0-0-0-0--0-0-0-0-|
--2--2-2-2-2-2--2-2-2-2-|--2--2-2-2-2-2--2-2-2-2-|--2--2-2-2-2-2--2-2-2-2-|
--0--0-0-0-0-0--0-0-0-0-|--0--0-0-0-0-0--0-0-0-0-|--3--3-3-3-3-3--3-3-3-3-|


  A#                       D#                                              
  E  S S S S E  S S S S    E  S S S S E  S S S S    E  S S S S E  S S S S  
--0--0-0-0-0-0--0-0-0-0-|--2--2-2-2-2-2--2-2-2-2-|--2--2-2-2-2-2--2-2-2-2-|
--2--2-2-2-2-2--2-2-2-2-|--3--3-3-3-3-3--3-3-3-3-|--3--3-3-3-3-3--3-3-3-3-|
--2--2-2-2-2-2--2-2-2-2-|--2--2-2-2-2-2--2-2-2-2-|--2--2-2-2-2-2--2-2-2-2-|
--2--2-2-2-2-2--2-2-2-2-|--0--0-0-0-0-0--0-0-0-0-|--0--0-0-0-0-0--0-0-0-0-|
--0--0-0-0-0-0--0-0-0-0-|--0--0-0-0-0-0--0-0-0-0-|--0--0-0-0-0-0--0-0-0-0-|
--0--0-0-0-0-0--0-0-0-0-|------------------------|------------------------|


  Gm                                                Cm                 
  E  S S S S E  S S S S    E  S S S S E  S S S S    E  E  E  E  E  E   
--2--2-2-2-2-2--2-2-2-2-|--2--2-2-2-2-2--2-2-2-2-|--2--2--2--2--2--2--|
--2--2-2-2-2-2--2-2-2-2-|--2--2-2-2-2-2--2-2-2-2-|--3--3--3--3--3--3--|
--2--2-2-2-2-2--2-2-2-2-|--2--2-2-2-2-2--2-2-2-2-|--4--4--4--4--4--4--|
--4--4-4-4-4-4--4-4-4-4-|--4--4-4-4-4-4--4-4-4-4-|--4--4--4--4--4--4--|
--4--4-4-4-4-4--4-4-4-4-|--4--4-4-4-4-4--4-4-4-4-|--2--2--2--2--2--2--|
--2--2-2-2-2-2--2-2-2-2-|--2--2-2-2-2-2--2-2-2-2-|--2--2--2--2--2--2--|


                       G#                                      
  E  E  E  E  E  E     E  E  E  E  E  E     E  E  E  E  E  E   
--2--2--2--2--2--2--|--3--3--3--3--3--3--|--3--3--3--3--3--3--|
--3--3--3--3--3--3--|--3--3--3--3--3--3--|--3--3--3--3--3--3--|
--4--4--4--4--4--4--|--0--0--0--0--0--0--|--0--0--0--0--0--0--|
--4--4--4--4--4--4--|--0--0--0--0--0--0--|--0--0--0--0--0--0--|
--2--2--2--2--2--2--|--2--2--2--2--2--2--|--2--2--2--2--2--2--|
--2--2--2--2--2--2--|--3--3--3--3--3--3--|--3--3--3--3--3--3--|


  Fm                                                A#                     
  E  S S S S E  S S S S    E  S S S S E  S S S S    E  S S S S E  S S S S  
--0--0-0-0-0-0--0-0-0-0-|--0--0-0-0-0-0--0-0-0-0-|--0--0-0-0-0-0--0-0-0-0-|
--0--0-0-0-0-0--0-0-0-0-|--0--0-0-0-0-0--0-0-0-0-|--2--2-2-2-2-2--2-2-2-2-|
--0--0-0-0-0-0--0-0-0-0-|--0--0-0-0-0-0--0-0-0-0-|--2--2-2-2-2-2--2-2-2-2-|
--2--2-2-2-2-2--2-2-2-2-|--2--2-2-2-2-2--2-2-2-2-|--2--2-2-2-2-2--2-2-2-2-|
--2--2-2-2-2-2--2-2-2-2-|--2--2-2-2-2-2--2-2-2-2-|--0--0-0-0-0-0--0-0-0-0-|
--0--0-0-0-0-0--0-0-0-0-|--0--0-0-0-0-0--0-0-0-0-|--0--0-0-0-0-0--0-0-0-0-|


                           Fm                                              
  E  S S S S E  S S S S    E  S S S S E  S S S S    E  S S S S E  S S S S  
--0--0-0-0-0-0--0-0-0-0-|--0--0-0-0-0-0--0-0-0-0-|--0--0-0-0-0-0--0-0-0-0-|
--2--2-2-2-2-2--2-2-2-2-|--0--0-0-0-0-0--0-0-0-0-|--0--0-0-0-0-0--0-0-0-0-|
--2--2-2-2-2-2--2-2-2-2-|--0--0-0-0-0-0--0-0-0-0-|--0--0-0-0-0-0--0-0-0-0-|
--2--2-2-2-2-2--2-2-2-2-|--2--2-2-2-2-2--2-2-2-2-|--2--2-2-2-2-2--2-2-2-2-|
--0--0-0-0-0-0--0-0-0-0-|--2--2-2-2-2-2--2-2-2-2-|--2--2-2-2-2-2--2-2-2-2-|
--0--0-0-0-0-0--0-0-0-0-|--0--0-0-0-0-0--0-0-0-0-|--0--0-0-0-0-0--0-0-0-0-|


  G#                       A#                       G#            
  E  S S S S E  S S S S    E  S S S S E  S S S S    H.            
--3--3-3-3-3-3--3-3-3-3-|--0--0-0-0-0-0--0-0-0-0-|--3------------|
--0--0-0-0-0-0--0-0-0-0-|--2--2-2-2-2-2--2-2-2-2-|--3------------|
--0--0-0-0-0-0--0-0-0-0-|--2--2-2-2-2-2--2-2-2-2-|--0------------|
--0--0-0-0-0-0--0-0-0-0-|--2--2-2-2-2-2--2-2-2-2-|--0------------|
--2--2-2-2-2-2--2-2-2-2-|--0--0-0-0-0-0--0-0-0-0-|--2------------|
--3--3-3-3-3-3--3-3-3-3-|------------------------|--3------------|


  A#              D#              Cm              G#              A#            
  ^               ^               ^               ^               ^             
  H.              H.              H.              H.              H.            
--0------------|--2------------|--2------------|--3------------|--0------------|
--2------------|--3------------|--3------------|--3------------|--2------------|
--2------------|--2------------|--4------------|--0------------|--2------------|
--2------------|--0------------|--4------------|--0------------|--2------------|
--0------------|---------------|--2------------|--2------------|--0------------|
---------------|---------------|---------------|--3------------|---------------|


  D#              Cm                 Fm                     
  ^               ^           ^ v                           
  H.              H        E  S S    E  S S S S E  S S S S  
--2------------|--2--------L--0-0-|--0--0-0-0-0-0--0-0-0-0-|
--3------------|--3--------L--0-0-|--0--0-0-0-0-0--0-0-0-0-|
--2------------|--4--------L--0-0-|--0--0-0-0-0-0--0-0-0-0-|
--0------------|--4--------L--2-2-|--2--2-2-2-2-2--2-2-2-2-|
---------------|--2--------L--2-2-|--2--2-2-2-2-2--2-2-2-2-|
---------------|--------------0-0-|--0--0-0-0-0-0--0-0-0-0-|


                           Gm                              A#m             
  E  S S S S E  S S S S    E  S S S S E  S S S S    E  S S E   S S E  S S  
--0--0-0-0-0-0--0-0-0-0-|--2--2-2-2-2-2--2-2-2-2-|--2--2-2-2---2-2-0--0-0-|
--0--0-0-0-0-0--0-0-0-0-|--2--2-2-2-2-2--2-2-2-2-|--2--2-2-3---3-3-3--3-3-|
--0--0-0-0-0-0--0-0-0-0-|--2--2-2-2-2-2--2-2-2-2-|--2--2-2-4---4-4-2--2-2-|
--2--2-2-2-2-2--2-2-2-2-|--4--4-4-4-4-4--4-4-4-4-|--4--4-4-4---4-4-2--2-2-|
--2--2-2-2-2-2--2-2-2-2-|--4--4-4-4-4-4--4-4-4-4-|--4--4-4-2---2-2-0--0-0-|
--0--0-0-0-0-0--0-0-0-0-|--2--2-2-2-2-2--2-2-2-2-|--2--2-2-2---2-2-0--0-0-|


  G#                       A#                       D#                     
  E  S S S S E  S S S S    E  S S S S E  S S S S    E  S S S S E  S S S S  
--3--3-3-3-3-3--3-3-3-3-|--0--0-0-0-0-0--0-0-0-0-|--2--2-2-2-2-2--2-2-2-2-|
--0--0-0-0-0-0--0-0-0-0-|--2--2-2-2-2-2--2-2-2-2-|--3--3-3-3-3-3--3-3-3-3-|
--0--0-0-0-0-0--0-0-0-0-|--2--2-2-2-2-2--2-2-2-2-|--2--2-2-2-2-2--2-2-2-2-|
--0--0-0-0-0-0--0-0-0-0-|--2--2-2-2-2-2--2-2-2-2-|--0--0-0-0-0-0--0-0-0-0-|
--2--2-2-2-2-2--2-2-2-2-|--0--0-0-0-0-0--0-0-0-0-|--0--0-0-0-0-0--0-0-0-0-|
--3--3-3-3-3-3--3-3-3-3-|--0--0-0-0-0-0--0-0-0-0-|------------------------|


                           Gm                                              
  E  S S S S E  S S S S    E  S S S S E  S S S S    E  S S S S E  S S S S  
--2--2-2-2-2-2--2-2-2-2-|--2--2-2-2-2-2--2-2-2-2-|--2--2-2-2-2-2--2-2-2-2-|
--3--3-3-3-3-3--3-3-3-3-|--2--2-2-2-2-2--2-2-2-2-|--2--2-2-2-2-2--2-2-2-2-|
--2--2-2-2-2-2--2-2-2-2-|--2--2-2-2-2-2--2-2-2-2-|--2--2-2-2-2-2--2-2-2-2-|
--0--0-0-0-0-0--0-0-0-0-|--4--4-4-4-4-4--4-4-4-4-|--4--4-4-4-4-4--4-4-4-4-|
--0--0-0-0-0-0--0-0-0-0-|--4--4-4-4-4-4--4-4-4-4-|--4--4-4-4-4-4--4-4-4-4-|
------------------------|--2--2-2-2-2-2--2-2-2-2-|--2--2-2-2-2-2--2-2-2-2-|


  Gm                                                G#                     
  E  S S S S E  S S S S    E  S S S S E  S S S S    E  S S S S E  S S S S  
--2--2-2-2-2-2--2-2-2-2-|--2--2-2-2-2-2--2-2-2-2-|--3--3-3-3-3-3--3-3-3-3-|
--3--3-3-3-3-3--3-3-3-3-|--3--3-3-3-3-3--3-3-3-3-|--3--3-3-3-3-3--3-3-3-3-|
--4--4-4-4-4-4--4-4-4-4-|--4--4-4-4-4-4--4-4-4-4-|--0--0-0-0-0-0--0-0-0-0-|
--4--4-4-4-4-4--4-4-4-4-|--4--4-4-4-4-4--4-4-4-4-|--0--0-0-0-0-0--0-0-0-0-|
--2--2-2-2-2-2--2-2-2-2-|--2--2-2-2-2-2--2-2-2-2-|--2--2-2-2-2-2--2-2-2-2-|
--2--2-2-2-2-2--2-2-2-2-|--2--2-2-2-2-2--2-2-2-2-|--3--3-3-3-3-3--3-3-3-3-|


                           Fm                                              
  E  S S S S E  S S S S    E  S S S S E  S S S S    E  S S S S E  S S S S  
--3--3-3-3-3-3--3-3-3-3-|--0--0-0-0-0-0--0-0-0-0-|--0--0-0-0-0-0--0-0-0-0-|
--3--3-3-3-3-3--3-3-3-3-|--0--0-0-0-0-0--0-0-0-0-|--0--0-0-0-0-0--0-0-0-0-|
--0--0-0-0-0-0--0-0-0-0-|--0--0-0-0-0-0--0-0-0-0-|--0--0-0-0-0-0--0-0-0-0-|
--0--0-0-0-0-0--0-0-0-0-|--2--2-2-2-2-2--2-2-2-2-|--2--2-2-2-2-2--2-2-2-2-|
--2--2-2-2-2-2--2-2-2-2-|--2--2-2-2-2-2--2-2-2-2-|--2--2-2-2-2-2--2-2-2-2-|
--3--3-3-3-3-3--3-3-3-3-|--0--0-0-0-0-0--0-0-0-0-|--0--0-0-0-0-0--0-0-0-0-|


  A#                                                Fm                     
  E  S S S S E  S S S S    E  S S S S E  S S S S    E  S S S S E  S S S S  
--0--0-0-0-0-0--0-0-0-0-|--0--0-0-0-0-0--0-0-0-0-|--0--0-0-0-0-0--0-0-0-0-|
--2--2-2-2-2-2--2-2-2-2-|--2--2-2-2-2-2--2-2-2-2-|--0--0-0-0-0-0--0-0-0-0-|
--2--2-2-2-2-2--2-2-2-2-|--2--2-2-2-2-2--2-2-2-2-|--0--0-0-0-0-0--0-0-0-0-|
--2--2-2-2-2-2--2-2-2-2-|--2--2-2-2-2-2--2-2-2-2-|--2--2-2-2-2-2--2-2-2-2-|
--0--0-0-0-0-0--0-0-0-0-|--0--0-0-0-0-0--0-0-0-0-|--2--2-2-2-2-2--2-2-2-2-|
--0--0-0-0-0-0--0-0-0-0-|--0--0-0-0-0-0--0-0-0-0-|--0--0-0-0-0-0--0-0-0-0-|


                           G#                       A#                     
  E  S S S S E  S S S S    E  S S S S E  S S S S    E  S S S S E  S S S S  
--0--0-0-0-0-0--0-0-0-0-|--3--3-3-3-3-3--3-3-3-3-|--0--0-0-0-0-0--0-0-0-0-|
--0--0-0-0-0-0--0-0-0-0-|--3--3-3-3-3-3--3-3-3-3-|--2--2-2-2-2-2--2-2-2-2-|
--0--0-0-0-0-0--0-0-0-0-|--0--0-0-0-0-0--0-0-0-0-|--2--2-2-2-2-2--2-2-2-2-|
--2--2-2-2-2-2--2-2-2-2-|--0--0-0-0-0-0--0-0-0-0-|--2--2-2-2-2-2--2-2-2-2-|
--2--2-2-2-2-2--2-2-2-2-|--2--2-2-2-2-2--2-2-2-2-|--0--0-0-0-0-0--0-0-0-0-|
--0--0-0-0-0-0--0-0-0-0-|--3--3-3-3-3-3--3-3-3-3-|--0--0-0-0-0-0--0-0-0-0-|


  D#                                                     
  H.              H.              E  S S S S E  S S S S  
--2------------|--L------------|------------------------|
--3------------|--L------------|------------------------|
--2------------|--L------------|------------------------|
--0------------|--L------------|--0--0-0-0-0-0--0-0-0-0-|
--0------------|--L------------|--0--0-0-0-0-0--0-0-0-0-|
---------------|---------------|------------------------|


  E  S S S S E  S S S S    E  S S S S E  S S S S    E  S S S S E  S S S S  
------------------------|------------------------|------------------------|
------------------------|------------------------|------------------------|
------------------------|------------------------|------------------------|
--0--0-0-0-0-0--0-0-0-0-|--4--4-4-4-4-4--4-4-4-4-|--4--4-4-4-4-4--4-4-4-4-|
--0--0-0-0-0-0--0-0-0-0-|--4--4-4-4-4-4--4-4-4-4-|--4--4-4-4-4-4--4-4-4-4-|
------------------------|--2--2-2-2-2-2--2-2-2-2-|--2--2-2-2-2-2--2-2-2-2-|


  E  S S S S E  S S S S    E  S S S S E  S S S S    E  S S S S E  S S S S  
------------------------|------------------------|------------------------|
------------------------|------------------------|------------------------|
--4--4-4-4-4-4--4-4-4-4-|--4--4-4-4-4-4--4-4-4-4-|------------------------|
--4--4-4-4-4-4--4-4-4-4-|--4--4-4-4-4-4--4-4-4-4-|--5--5-5-5-5-5--5-5-5-5-|
--2--2-2-2-2-2--2-2-2-2-|--2--2-2-2-2-2--2-2-2-2-|--5--5-5-5-5-5--5-5-5-5-|
------------------------|------------------------|--3--3-3-3-3-3--3-3-3-3-|


  E  S S S S E  S S S S    E  S S S S E  S S S S    E  S S S S E  S S S S  
------------------------|------------------------|------------------------|
------------------------|------------------------|------------------------|
------------------------|------------------------|------------------------|
--5--5-5-5-5-5--5-5-5-5-|--0--0-0-0-0-0--0-0-0-0-|--0--0-0-0-0-0--0-0-0-0-|
--5--5-5-5-5-5--5-5-5-5-|--0--0-0-0-0-0--0-0-0-0-|--0--0-0-0-0-0--0-0-0-0-|
--3--3-3-3-3-3--3-3-3-3-|------------------------|------------------------|


  E  S S S S E  S S S S    E  S S S S E  S S S S    E  S S S S E  S S S S  
------------------------|------------------------|------------------------|
------------------------|------------------------|------------------------|
------------------------|------------------------|--4--4-4-4-4-4--4-4-4-4-|
--4--4-4-4-4-4--4-4-4-4-|--4--4-4-4-4-4--4-4-4-4-|--4--4-4-4-4-4--4-4-4-4-|
--4--4-4-4-4-4--4-4-4-4-|--4--4-4-4-4-4--4-4-4-4-|--2--2-2-2-2-2--2-2-2-2-|
--2--2-2-2-2-2--2-2-2-2-|--2--2-2-2-2-2--2-2-2-2-|------------------------|


  E  S S S S E  S S S S    E  S S S S E  S S S S    E  S S S S E  S S S S  
------------------------|------------------------|------------------------|
------------------------|------------------------|------------------------|
--4--4-4-4-4-4--4-4-4-4-|------------------------|------------------------|
--4--4-4-4-4-4--4-4-4-4-|--5--5-5-5-5-5--5-5-5-5-|--5--5-5-5-5-5--5-5-5-5-|
--2--2-2-2-2-2--2-2-2-2-|--5--5-5-5-5-5--5-5-5-5-|--5--5-5-5-5-5--5-5-5-5-|
------------------------|--3--3-3-3-3-3--3-3-3-3-|--3--3-3-3-3-3--3-3-3-3-|


  E  S S S S E  S S S S    E  S S S S E  S S S S    E  S S S S E  S S S S  
------------------------|------------------------|------------------------|
------------------------|------------------------|------------------------|
------------------------|------------------------|------------------------|
--0--0-0-0-0-0--0-0-0-0-|--0--0-0-0-0-0--0-0-0-0-|--4--4-4-4-4-4--4-4-4-4-|
--0--0-0-0-0-0--0-0-0-0-|--0--0-0-0-0-0--0-0-0-0-|--4--4-4-4-4-4--4-4-4-4-|
------------------------|------------------------|--2--2-2-2-2-2--2-2-2-2-|


  E  S S S S E  S S S S    E  S S S S E  S S S S    E  S S S S E  S S S S  
------------------------|------------------------|------------------------|
------------------------|------------------------|------------------------|
------------------------|--4--4-4-4-4-4--4-4-4-4-|--4--4-4-4-4-4--4-4-4-4-|
--4--4-4-4-4-4--4-4-4-4-|--4--4-4-4-4-4--4-4-4-4-|--4--4-4-4-4-4--4-4-4-4-|
--4--4-4-4-4-4--4-4-4-4-|--2--2-2-2-2-2--2-2-2-2-|--2--2-2-2-2-2--2-2-2-2-|
--2--2-2-2-2-2--2-2-2-2-|------------------------|------------------------|


  E  S S S S E  S S S S    E  S S S S E  S S S S    E  S S S S E  S S S S  
------------------------|------------------------|------------------------|
------------------------|------------------------|------------------------|
------------------------|------------------------|------------------------|
--5--5-5-5-5-5--5-5-5-5-|--5--5-5-5-5-5--5-5-5-5-|--0--0-0-0-0-0--0-0-0-0-|
--5--5-5-5-5-5--5-5-5-5-|--5--5-5-5-5-5--5-5-5-5-|--0--0-0-0-0-0--0-0-0-0-|
--3--3-3-3-3-3--3-3-3-3-|--3--3-3-3-3-3--3-3-3-3-|------------------------|


  E  S S S S E  S S S S    E  S S S S E  S S S S    E  S S S S E  S S S S  
------------------------|------------------------|------------------------|
------------------------|------------------------|------------------------|
------------------------|------------------------|------------------------|
--0--0-0-0-0-0--0-0-0-0-|--4--4-4-4-4-4--4-4-4-4-|--4--4-4-4-4-4--4-4-4-4-|
--0--0-0-0-0-0--0-0-0-0-|--4--4-4-4-4-4--4-4-4-4-|--4--4-4-4-4-4--4-4-4-4-|
------------------------|--2--2-2-2-2-2--2-2-2-2-|--2--2-2-2-2-2--2-2-2-2-|


  E  S S S S E  S S S S    E  S S S S E  S S S S    E  S S S S E  S S S S  
------------------------|------------------------|------------------------|
------------------------|------------------------|------------------------|
--4--4-4-4-4-4--4-4-4-4-|--4--4-4-4-4-4--4-4-4-4-|------------------------|
--4--4-4-4-4-4--4-4-4-4-|--4--4-4-4-4-4--4-4-4-4-|--5--5-5-5-5-5--5-5-5-5-|
--2--2-2-2-2-2--2-2-2-2-|--2--2-2-2-2-2--2-2-2-2-|--5--5-5-5-5-5--5-5-5-5-|
------------------------|------------------------|--3--3-3-3-3-3--3-3-3-3-|


  E  S S S S E  S S S S    H.              H.              H.            
------------------------|---------------|---------------|---------------|
------------------------|---------------|---------------|---------------|
------------------------|---------------|---------------|---------------|
--5--5-5-5-5-5--5-5-5-5-|--0------------|--L------------|--L------------|
--5--5-5-5-5-5--5-5-5-5-|--0------------|--L------------|--L------------|
--3--3-3-3-3-3--3-3-3-3-|---------------|---------------|---------------|



Duration Legend
---------------
W - whole
H - half
Q - quarter
E - 8th
S - 16th
. - note dotted
|-n-|  - n-tuplets


Tablature Legend
----------------
L - tied note
x - dead note
g - grace note
(n) - ghost note
> - accentuded note
< - fade in
^ - brush up
v - brush down

Tap to rate this tab
 
# A B C D E F G H I J K L M N O P Q R S T U V W X Y Z