Song name
# A B C D E F G H I J K L M N O P Q R S T U V W X Y Z

Panda - Oro tab

demo2 cualquier duda oliver-0usgher@hotmail.com
                     www.facebook.com/0usgher
                                      0 = es cero
intro
ritmo
e|-3-3--3-3-3--2-2-2-2-------------------|
b|-3-3--3-3-3--3-3-3-3--5-5-5-5--3-3-3-3-|
g|----------------------5-5-5-5--4-4-4-4-|
d|---------------------------------------|
a|---------------------------------------|
d|---------------------------------------|

e|-3-3--3-3-3--2-2-2-2----------------------------|
b|-3-3--3-3-3--3-3-3-3--5-5-5-5--7-7-7-7-7-7-7-7--|
g|----------------------5-5-5-5--7-7-7-7-7-7-7-7--|
d|------------------------------------------------|
a|------------------------------------------------|
d|------------------------------------------------|

  guitarra 2
e|-3-3--3-3-3-2-0------------------------------|
b|-3-3--3---------3-5-2--5-5-5-5--5-3-1-0-1-3--|
g|-----------------------5-5-5-5---------------|x2
d|---------------------------------------------|
a|---------------------------------------------|
d|---------------------------------------------|

   |---------------|
   |-1-1-1--3-5-3--|
   |---------------|
   |---------------|
   |---------------|
   |---------------|


 verso (ritmo tanteo)
e|-3-3--3--2--2-2------------------------------------------|
b|-3-3--3--3--3-3--5-5--3-3--5-5--7-7-5-5--7-7-7-7-7-7-7-7-|
g|-----------------5-5--4-4--5-5--7-7-5-5--7-7-7-7-7-7-7-7-| x2
d|---------------------------------------------------------|
a|---------------------------------------------------------|
d|---------------------------------------------------------|

 coro
e|--------------------------------------------------------------------|
b|--------------------------------------------------------------------|
g|-5-5-5-5-5-5-5-5--7-7-7-7-7-7-7-7-----------------------------------|x4
d|-5-5-5-5-5-5-5-5--7-7-7-7-7-7-7-7-5-5-5-5-5-5-5-5--2-2-2-2-2-2-2-2--|
a|-3-3-3-3-3-3-3-3--5-5-5-5-5-5-5-5-5-5-5-5-5-5-5-5--2-2-2-2-2-2-2-2--|
d|----------------------------------3-3-3-3-3-3-3-3--0-0-0-0-0-0-0-0--|

fin del coro
e|---------------------------|
b|---------------------------|
g|-5-5-5-5--7-7--7-7-7-x-----|
d|-5-5-5-5--7-7--7-7-7-x-2---|
a|-3-3-3-3--5-5--5-5-5-x-2---|
d|-----------------------0---|


(serepite el verso)
 verso

coro
e|--------------------------------------------------------------------|
b|--------------------------------------------------------------------|
g|-5-5-5-5-5-5-5-5--7-7-7-7-7-7-7-7-----------------------------------|x4
d|-5-5-5-5-5-5-5-5--7-7-7-7-7-7-7-7-5-5-5-5-5-5-5-5--2-2-2-2-2-2-2-2--|
a|-3-3-3-3-3-3-3-3--5-5-5-5-5-5-5-5-5-5-5-5-5-5-5-5--2-2-2-2-2-2-2-2--|
d|----------------------------------3-3-3-3-3-3-3-3--0-0-0-0-0-0-0-0--|

fin del coro
e|----------------------------|
b|----------------------------|
g|-5-5-5-5--7-7--7-7-7-x------|
d|-5-5-5-5--7-7--7-7-7-x-2--2-|
a|-3-3-3-3--5-5--5-5-5-x-2--2-|
d|-----------------------0--0-|

 interlude
e|---------------------------|
g|-5555--7777----------------|x4
d|-5555--7777--5555--2222----|
a|-3333--5555--5555--2222----|
d|-------------3333--0000----|

 ritmo ska (parte lenta)
e|-2-2--3-3--2-2------|    |--------|
b|-3-3--3-3--3-3--5-5-|    |---2-3--|
g|----------------5-5-|x4  |---3-3--|
d|--------------------|    |--------|
a|--------------------|    |--------|
d|--------------------|    |--------|

 termina con el coro
 coro
e|--------------------------------------------------------------------|
b|--------------------------------------------------------------------|
g|-5-5-5-5-5-5-5-5--7-7-7-7-7-7-7-7-----------------------------------|x4
d|-5-5-5-5-5-5-5-5--7-7-7-7-7-7-7-7-5-5-5-5-5-5-5-5--2-2-2-2-2-2-2-2--|
a|-3-3-3-3-3-3-3-3--5-5-5-5-5-5-5-5-5-5-5-5-5-5-5-5--2-2-2-2-2-2-2-2--|
d|----------------------------------3-3-3-3-3-3-3-3--0-0-0-0-0-0-0-0--|
Tap to rate this tab
# A B C D E F G H I J K L M N O P Q R S T U V W X Y Z