Song name
# A B C D E F G H I J K L M N O P Q R S T U V W X Y Z

Panda - El Gran Mcgee tab

  
INTRO
GUITARRA 1
|----------------------------------------------------------------|
|----------------------------------------------------------------|
|--3h4p3-4/6-4-3-3h4p3-3-4/6-4-3--3h4p3-4/6-4-3-3h4p3-3-----3----|
|-4-----4-------------4-4--------4-----4-------------4-4-4/6-6-4-|2 X
|----------------------------------------------------------------|
|----------------------------------------------------------------|

GUITARRA 2
|------------------------------------|
|------------------------------------|
|-----XXXX-6-6-----------------------|
|-4-4-XXXX-6-6-XX-8-8-XXX-9-9-XX-9-9-|4 X
|-4-4-XXXX-4-4-XX-8-8-XXX-9-9-XX-9-9-|
|-2-2----------XX-6-6-XXX-7-7-XX-7-7-|

VERSO
GUITARRA 1 Y 2
|------------------------------------|
|------------------------------------|
|-----XXXX-6-6-----------------------|
|-4-4-XXXX-6-6-XX-8-8-XXX-9-9-XX-9-9-|4 X
|-4-4-XXXX-4-4-XX-8-8-XXX-9-9-XX-9-9-|
|-2-2----------XX-6-6-XXX-7-7-XX-7-7-|

|---------------------------------|
|---------------------------------|
|---------6-6-6-6-----------------|
|-4-4-4-4-6-6-6-6-8-8-8-8-9-9-9-9-|4 X
|-4-4-4-4-4-4-4-4-8-8-8-8-9-9-9-9-|
|-2-2-2-2---------6-6-6-6-7-7-7-7-|

|-------------------------|
|-------------------------|
|-------------------------|
|-9-8-9-8-9-8-9-8-9-8-9-8-|
|-9-8-9-8-9-8-9-8-9-8-9-8-|
|-7-6-7-6-7-6-7-6-7-6-7-6-|

CORO
GUITARRA 1 Y 2
|---------------------------------|
|---------------------------------|
|---------6-6-6-6-8-8-8-8-6-6-6-6-|
|-4-4-4-4-6-6-6-6-8-8-8-8-6-6-6-6-|4 X
|-4-4-4-4-4-4-4-4-6-6-6-6-4-4-4-4-|
|-2-2-2-2-------------------------|

PRE-VERSO
GUITARRA 1
|----------------------------------------------------------------|
|----------------------------------------------------------------|
|--3h4p3-4/6-4-3-3h4p3-3-4/6-4-3--3h4p3-4/6-4-3-3h4p3-3-----3----|
|-4-----4-------------4-4--------4-----4-------------4-4-4/6-6-4-|
|----------------------------------------------------------------|
|----------------------------------------------------------------|

GUITARRA 2
|------------------------------------|
|------------------------------------|
|-----XXXX-6-6-----------------------|
|-4-4-XXXX-6-6-XX-8-8-XXX-9-9-XX-9-9-|2 X
|-4-4-XXXX-4-4-XX-8-8-XXX-9-9-XX-9-9-|
|-2-2----------XX-6-6-XXX-7-7-XX-7-7-|

VERSO
LA PRIMERA PARTE ES PURO BAJO
DESPUES:
|---------------------------------|
|---------------------------------|
|---------6-6-6-6-----------------|
|-4-4-4-4-6-6-6-6-8-8-8-8-9-9-9-9-|4 X
|-4-4-4-4-4-4-4-4-8-8-8-8-9-9-9-9-|
|-2-2-2-2---------6-6-6-6-7-7-7-7-|

|-------------------------|
|-------------------------|
|-------------------------|
|-9-8-9-8-9-8-9-8-9-8-9-8-|
|-9-8-9-8-9-8-9-8-9-8-9-8-|
|-7-6-7-6-7-6-7-6-7-6-7-6-|

CORO
GUITARRA 1 Y 2
|---------------------------------|
|---------------------------------|
|---------6-6-6-6-8-8-8-8-6-6-6-6-|
|-4-4-4-4-6-6-6-6-8-8-8-8-6-6-6-6-|4 X
|-4-4-4-4-4-4-4-4-6-6-6-6-4-4-4-4-|
|-2-2-2-2-------------------------|

BRIDGE
GUITARRA 1 Y 2
|------------------|   |-----------------------------------|
|------------------|   |-----------------------------------|
|------------------|   |-----------------------------------|
|-6-6-6-X-8-9-9999-|3X |-1111111111111111101110111011101110|
|-6-6-6-X-8-9-9999-|   |-1111111111111111101110111011101110|
|-4-4-4-X-6-7-7777-|   |-9-9-9-9-9-9-9-9-8-9-8-9-8-9-8-9-8-|

SOLO
GUITARRA 1
|-------------------------------------------------------------|
|-7-7-7-7-9-9/11-11-11-11-11-9-9/7-6-6/7-7-7-7-7-9-9/11-11-11-|
|-------------------------------------------------------------|
|-------------------------------------------------------------|
|-------------------------------------------------------------|
|-------------------------------------------------------------|

|----------------------|----------------------------------------------|
|-12-11-12-11-12-11-12-|-12h11p12-/14-12b14-12--12-12b14-12b14-12--12-|
|----------------------|----------------------14-----------------14---|
|----------------------|----------------------------------------------|
|----------------------|----------------------------------------------|
|----------------------|----------------------------------------------|
                       ........................4 x....................
GUITARRA 2
|------------------------------------|
|------------------------------------|
|-----XXXX-6-6-----------------------|
|-4-4-XXXX-6-6-XX-8-8-XXX-9-9-XX-9-9-|5 X
|-4-4-XXXX-4-4-XX-8-8-XXX-9-9-XX-9-9-|
|-2-2----------XX-6-6-XXX-7-7-XX-7-7-|

ULTIMO CORO
GUITRRA 2
|---------------------|
|---------------------|
|---------------------|
|-11101110111011101110|
|-11101110111011101110|
|-9-8-9-8-9-8-9-8-9-8-|

GUITARRA 1 Y 2
|----------------------|
|----------------------|
|----------------------|
|-6-6666-6-6666-6-6666-|
|-6-6666-6-6666-6-6666-|
|-4-4444-4-4444-4-4444-|

|---------------------------------|
|---------------------------------|
|---------8-8-8-8-101010108-8-8-8-|
|-6-6-6-6-8-8-8-8-101010108-8-8-8-|4 X
|-6-6-6-6-6-6-6-6-8-8-8-8-6-6-6-6-|
|-4-4-4-4-------------------------|
Tap to rate this tab
 
# A B C D E F G H I J K L M N O P Q R S T U V W X Y Z