Song name
# A B C D E F G H I J K L M N O P Q R S T U V W X Y Z

Panda - Ilasha tab

Banda: PAnDa
Cancion: Ilasha

BY: Oswaldo C.A  "0sWA"  dudas, felicitaciones etc, 
a mi mail jeje:P 
oswaldo0011@hotmail.com

Esta cancion esta muy chida, y mās para kienes les paso esto como a mi :(,
se la dedico especialmente mi karnalin David ke kree en mi talento :P,
y a toda la banda ke le guste panda a Polar mi banda de rock (pavo y Wero) 
espero la disfruten. Me atrevo a decir ke esta tab esta casi perfecta y 
unica y mis condolencias para los ke estan muy weyes y suben tabs
sin sacarlas bien. jajaja :P

NO olviden votar si les late ;)


INTRO

Guitarra 2 

eb|------------------------|
Bb|------------------------|   
Gb|------------------------| 
Ab|------4-7-5-------------|
Eb|----5-------------------|



Esta es la parte de teclado y entra en la tercera vez del intro

Guitarra 1
 
eb|-10-9----10-9----10-9-10-12-10-9--10-9---10-9----10-9----10-9-10-12-|
Bb|------10------10------------------------------10------10------------|
Gb|--------------------------------------------------------------------|
Db|--------------------------------------------------------------------|
Ab|--------------------------------------------------------------------|
Eb|--------------------------------------------------------------------|


Verso 

(Por ke me dejasteee ke pensastee.....)

Guitarra 1 y 2

eb|--------------------------|
Bb|--------------------------|
Gb|-----7--------------------|
Db|--7--7--4--2--------------|  X2
Ab|--7--5--4--2--------------|
Eb|--5-----2--0--------------|


(Yo pense ke eras normal kuando yo te vi bailar.....)

Guitarra 1

eb|------12-10-9-10-12-10-9----------------|
Bb|-(10)--------------------12-10----------|        
Gb|----------------------------------------|        
Db|----------------------------------------| X4
Ab|----------------------------------------|
Eb|----------------------------------------|


Guitarra 2

eb|-------------------------|  |----------------------------|
Bb|-------------------------|  |----------------------------|
Gb|-------------x-x-7-------|  |--------x-x-7---------------| 
Db|-x-x-7-------x-x-7-------|x2|-x-x-7--x-x-7--x-x-4--x-x-2-|   
Ab|-x-x-7-(x4)--x-x-5-(x4)--|  |-x-x-7--x-x-5--x-x-4--x-x-2-|
Eb|-x-x-5-------------------|  |-x-x-5---------x-x-2--x-x-0-|

                                  (x4)   (x4)   (x4)   (x4) 



Coro

Guitarra 1 y 2

(Hay nooooo!!!!! no era como se describia.....)

eb|-------------------------|
Bb|-------------------------|
Gb|---------7--9------------|
Db|--7--9---7--9------------|x2
Ab|--7--9---5--7------------|
Eb|--5--7-------------------|




Sigue el intro igual


verso

(POr ke estas tan trizteeee......)

Guitarra 1 y 2

eb|--------------------------|
Bb|--------------------------|
Gb|-----7--------------------|
Db|--7--7--4--2--------------|  X2
Ab|--7--5--4--2--------------|
Eb|--5-----2--0--------------|


(Me enseņaste muchas kosas ke yo nunka olvidare........)

Guitarra 1

eb|------12-10-9-10-12-10-9--------|     |-----12-10-9-10-|
Bb|-(10)--------------------12-10--|     |----------------|
Gb|--------------------------------|     |----------------|
Db|--------------------------------| X3  |----------------|
Ab|--------------------------------|     |----------------|
Eb|--------------------------------|     |----------------|


Guitarra 2

eb|-------------------------|   |----------------------------|
Bb|-------------------------|   |----------------------------|
Gb|-------------x-x-7-------|   |--------x-x-7---------------| 
Db|-x-x-7-------x-x-7-------| x2|-x-x-7--x-x-7--x-x-4--x-x-2-|   
Ab|-x-x-7-(x4)--x-x-5-(x4)--|   |-x-x-7--x-x-5--x-x-4--x-x-2-|
Eb|-x-x-5-------------------|   |-x-x-5---------x-x-2--x-x-0-||

                                  (x4)   (x4)   (x4)   

Coro

Guitarra 1 y 2

(Hay nooooo!!!!! no era como se describia.....)

eb|-------------------------|
Bb|-------------------------|
Gb|---------7--9------------|
Db|--7--9---7--9------------|x2
Ab|--7--9---5--7------------|
Eb|--5--7-------------------|



Verso

Guitarra 1 y 2

(Tu me dijiste muchas cosas para ke fuera a caeeer)

eb|------------------------------------------------|   
Bb|------------------------------------------------|
Gb|--7----------------7--9-------------------------|
Db|--7--9--7--4-------7--9-------------------------|
Ab|--5--9--7--4--x3---5--7-------------------------|
Eb|-----7--5--2------------------------------------|




Coro

Guitarra 1 y 2

(Hay nooooo!!!!! no era como se describia.....)

eb|-------------------------|
Bb|-------------------------|
Gb|---------7--9------------|
Db|--7--9---7--9------------|x4
Ab|--7--9---5--7------------|
Eb|--5--7-------------------|


y FiiiiiiiiiiiNNNN!!!!!!!!!!
Tap to rate this tab
# A B C D E F G H I J K L M N O P Q R S T U V W X Y Z