Song name
# A B C D E F G H I J K L M N O P Q R S T U V W X Y Z

Panda - Oro tab

Esta es la version viejita pero esta chida y esta
rola se la dediko a Monca no tengo idea de por que pero
quiero dedicrsela a ella ,bueno hay se las dejo
enjoy it.

Intro (clean)


La rola va mas o menos en ritmo ska

    F#       C#       B        F#       F#       A#       B       C#
e -22-2-2-2--4-4-4-4--2-2-2-2--2-2-2-2--2-2-2-2--1-1-1-1--2-2-2-2/44444444-|
B -22-2-2-2--6-6-6-6--4-4-4-4--2-2-2-2--2-2-2-2--3-3-3-3--4-4-4-4/66666666-|
G -33-3-3-3--6-6-6-6--4-4-4-4--3-3-3-3--3-3-3-3--3-3-3-3--4-4-4-4/66666666-|
D -44-4-4-4--6-6-6-6--4-4-4-4--4-4-4-4--4-4-4-4--3-3-3-3--4-4-4-4/66666666-|
A -------------------------------------------------------------------------|
E -------------------------------------------------------------------------|

  Otra vez pero con esto:

e --------------------------------------------------------------------------|
B----7-7--7-7--7-6-4---4-6----4-4--4-4--4--------------7-7--7-7--7-6-4---4--|
G--------------------4--------------------6-4-3-4----------------------4----|Continua

e -4-4-4-4-6-8-6------------------------------------------------------------|
B --------------------------------------------------------------------------|
G --------------------------------------------------------------------------|

  Verso (clean)

    F#       C#       D#m      C#       B        F#       B       C#
e --2-2-2-2--4-4-4-4--6-6-6-6--4-4-4-4--2-2-2-2--2-2-2-2--2-2-2-2/44444444--|
B --2-2-2-2--6-6-6-6--7-7-7-7--6-6-6-6--4-4-4-4--2-2-2-2--4-4-4-4/66666666--|
G --3-3-3-3--6-6-6-6--8-8-8-8--6-6-6-6--4-4-4-4--3-3-3-3--4-4-4-4/66666666--|
D --4-4-4-4--6-6-6-6--8-8-8-8--6-6-6-6--4-4-4-4--4-4-4-4--4-4-4-4/66666666--|
A --------------------------------------------------------------------------|
E --------------------------------------------------------------------------|

  Coro (dist)

    B5       C#5      F#5      D#5
e ---------------------------------------|
B ---------------------------------------|
G --44444444-66666666----------88888888--|    Esto va 4 veces
D --44444444-66666666-44444444-88888888--|
A --22222222-44444444-44444444-66666666--|
E --------------------22222222-----------|

  Y el coro termina aaaaasssiii:

    B5       C#5      F#5
e -----------------------|
B -----------------------|
G --4-4-4-4--6-6-6-6-----|
D --4-4-4-4--6-6-6-6--4~-|
A --2-2-2-2--4-4-4-4--4~-|
E --------------------2~-|

Se repite el verso

Se repite el coro

Luego del segundo coro sigue esto: (dist)

Lleva Palm Muted en unos cachos pero si no les sale tan bien pueden poner el dedo en medio
del primer traste pero sin presionar, solo medio recarguen el dedo.
Comunmente se recarga la palma cerca del puente pero en este caso es mas facil lo del dedo.

e ---------------------------------|
B ---------------------------------|
G --444--666--000--------888--000--|   Esto va 4 veces
D --444--666--000---444--888--000--|
A --222--444--000---444--666--000--|
E ------------000---222-------000--|
P.M.          ...             ...

Termina en

e ------|
B ------|
G --4~--
D --4~--
A --2~--
E ------

El coro que va despacio tambien es en ritmo Ska o hasta en regaee. (clean)

    B      C#     F#     D#m
e --2--2---4--4---2--2---6--6--|
B --4--4---6--6---2--2---7--7--|
G --4--4---6--6---3--3---8--8--|   Esto va 4 veces
D --4--4---6--6---4--4---8--8--|
A -----------------------------|
E -----------------------------|

    B     C#    F#
e --2--2---4--4-2~--|
B --4--4---6--6-2~--|
G --4--4---6--6-3~--|
D --4--4---6--6-4~--|
A ------------------|
E ------------------|
Tap to rate this tab
# A B C D E F G H I J K L M N O P Q R S T U V W X Y Z