Song name
# A B C D E F G H I J K L M N O P Q R S T U V W X Y Z

Panda - Miedo A Las Alturas tab

Bueno aqui esta una de las tantas canciones plagiadas de panda "miedo a las alturas"(la 
es la misma solo que en espaņol de It's Not a Fashion Statement Its a Deathwish de My 
Romance) espero que les guste, la afinacion es la sig: Eb,Ab,Db,Gb,Bb,eb

Intro x2
eb----------------------------------------|
Bb----------------------------------------|
Gb-----5-------5--------------------------|
Db---3-----3------------------------------|
Ab-5--5--5---5----5--3-3-3-3--5-5-5-5-----|
Eb-------------------1-1-1-1--3-3-3-3-----|

Verso 1

 d5                   a#5
Te acuerdas cuando me dijiste
               f5                  c5
dificil se pondra eso fue lo que paso
 d5                   a#5
y prometiste que cuando yo
     f5                 c5
muera guardarias mi corazon

Riff 1
eb--------------------------------------|
Bb--------------------------------------|
Gb--5-5-5-5---5-5-5-5--5-5--------------|
Db--------------------------------------|
Ab--5-5-5-5---5-5-5-5--5-5--------------|
Eb--------------------------------------|

eb--------------------------------------|
Bb--------------------------------------|
Gb--------------------------------------|
Db-3-3-3-3---5-5-5-5--5-5---------------|
Ab--------------------------------------|
Eb-1-1-1-1---3-3-3-3--3-3---------------|

Verso 2
 d5                   a#5
el daņo que causaste era lo
  f5                  c5
unico que me podia matar
 d5
heridas temporales
    a#5      f5           c5
no basto atacame si yo sabre


Coro

eb--------------------------------------|
Bb--------------------------------------|
Gb-3~--5~--10-10-10-9-9-9--7-7-7-7-7-7--|
Db-3~--5~-------------------------------|
Ab-1~--3~--8--8--8--7-7-7--5-5-5-5-5-5--|
Eb--------------------------------------|

eb--------------------------------------|
Bb--------------------------------------|
Gb-3----5----10-10-10-9-9-9--7-7-7-7-7--|
Db-3----5-------------------------------|
Ab-1x8--3x8--8--8--8--7-7-7--5-5-5-5-5--|
Eb--------------------------------------|

eb--------------------------------------|
Bb--------------------------------------|
Gb-3----5-------------------------------|
Db-3----5-------------------------------|
Ab-1x8--3x8-----------------------------|
Eb--------------------------------------|

Riff 1
eb--------------------------------------|
Bb--------------------------------------|
Gb--5-5-5-5---5-5-5-5--5-5--------------|
Db--------------------------------------|
Ab--5-5-5-5---5-5-5-5--5-5--------------|
Eb--------------------------------------|

eb--------------------------------------|
Bb--------------------------------------|
Gb--------------------------------------|
Db-3-3-3-3---5-5-5-5--5-5---------------|
Ab--------------------------------------|
Eb-1-1-1-1---3-3-3-3--3-3---------------|


Puente
eb--------------------------------------------------------------------|
Bb-------10---------10-----------------8---------8--------------------|
Gb----10--------10---------10-------9---------9---------9-------------|
Db-10--------10---------10------10--------10---------10---------------|
Ab--------------------------------------------------------------------|
Eb--------------------------------------------------------------------|
       F                            C

eb--------------------------------------------------------------------|
Bb-------6------6------------5------5---------------------------------|
Gb----7-------7------7-----5------5--------5--------------------------|
Db--7-------7------7-----5------5--------5----------------------------|
Ab--------------------------------------------------------------------|
Eb--------------------------------------------------------------------|
      Dm                     C

Coro

eb--------------------------------------|
Bb--------------------------------------|
Gb-3~--5~--10-10-10-9-9-9--7-7-7-7-7-7--|
Db-3~--5~-------------------------------|
Ab-1~--3~--8--8--8--7-7-7--5-5-5-5-5-5--|
Eb--------------------------------------|

eb--------------------------------------|
Bb--------------------------------------|
Gb-3----5----10-10-10-9-9-9--7-7-7-7-7--|
Db-3----5-------------------------------|
Ab-1x8--3x8--8--8--8--7-7-7--5-5-5-5-5--|
Eb--------------------------------------|

eb--------------------------------------|
Bb--------------------------------------|
Gb-3----5-------------------------------|
Db-3----5-------------------------------|
Ab-1x8--3x8-----------------------------|
Eb--------------------------------------|


Riff 1
eb--------------------------------------|
Bb--------------------------------------|
Gb--5-5-5-5---5-5-5-5--5-5--------------|
Db--------------------------------------|
Ab--5-5-5-5---5-5-5-5--5-5--------------|
Eb--------------------------------------|

eb--------------------------------------|
Bb--------------------------------------|
Gb--------------------------------------|
Db-3-3-3-3---5-5-5-5--5-5---------------|
Ab--------------------------------------|
Eb-1-1-1-1---3-3-3-3--3-3---------------|

solo

eb--------------------------------------|
Bb-----3-5-6--5-3-----------------------|
Gb--5--------------x8-------------------|
Db--------------------------------------|
Ab--------------------------------------|
Eb--------------------------------------|

despues del solo
eb--------------------------------------|
Bb--------------------------------------|
Gb--5--5-5-5-5---5-5--------------------|
Db---------------5-5---3-3-3-3-3--------|
Ab--5--5-5-5-5---5-5--------------------|
Eb---------------------1-1-1-1-1--------|


  d5      a#5        f5                c5
si tu te vas nunca olvides que yo te recordare
  d5      a#5        f5                c5
se muy bien que al final tu y yo estaremos juntos
  d5         a#5
ya he perdido el miedo de caer
   f5                   c5
el miedo a las alturas saltare contigo
  d5      a#5        f5                c5
si tu te vas nunca olvides que yo te recordare...


ahi esta eso es todo

saludos a la banda alex, hugo , panda, ernesto(sangres)

arriba Cozumel, Mexico

Perigeo! Yeah!
Tap to rate this tab
 
# A B C D E F G H I J K L M N O P Q R S T U V W X Y Z