Song name
# A B C D E F G H I J K L M N O P Q R S T U V W X Y Z

Panda - Cuando No Es Como Deberia Ser tab

ok aki esta la parte k eh sacado de cando noe s como deberia ser solo falta un cacho 
lo demas sta bien(segun yo).

intro
guitarra 1(x2)
-----------------------------------------------------------------|
--------7-----------7---------7----------7---------7----------7--|
----4-5  ---4-5--------4-5-------4-5-------4-5---------4-5-------|
-----------------------------------------------------------------|
-----------------------------------------------------------------|
-----------------------------------------------------------------|

-------------------------------------------------------------------|
---------5-6-5-----------------------------------------------------|
---------------7-6-------------------------------------------------|
-------------------------------------------------------------------|
-------------------------------------------------------------------|
-------------------------------------------------------------------|
y la segunda vez esto termina asi
-------------------------------------------------------------------|
---------5-6-5-----------------------------------------------------|
---------------7-6-7-----------------------------------------------|
-------------------------------------------------------------------|
-------------------------------------------------------------------|
-------------------------------------------------------------------|


guitarra2(x2)
--------------------------------------------------------------------------------------|
--------------------------------------------------------------------------------------|
333333-----------6622-----------------------------------------------------------------|
333333444444666666622-----------------------------------------------------------------|
1111114444446666644-------------------------------------------------------------------|
------22222244444---------------------------------------------------------------------|


tal vez asi...
se repite el intro de la guitarra 2

guitarra 1
------------------------------------------------------------|
-------15------15-------15--------15------15-----15---------|
11-12-----11-12---11-12-----11-12----11-12---11-12----------|
------------------------------------------------------------|
------------------------------------------------------------|
------------------------------------------------------------|

-----------------------------------------------------------------|
--12-13-12-------------------------------------------------------|
-----------14-13-------------------------------------------------|
-----------------------------------------------------------------|
-----------------------------------------------------------------|
-----------------------------------------------------------------|

------------------------------------------------------------|
-------15------15-------15--------15------15-----15---------|
11-12-----11-12---11-12-----11-12----11-12---11-12----------|
------------------------------------------------------------|
------------------------------------------------------------|
------------------------------------------------------------|

-----------------------------------------------------------------|
--12-13-12-------------------------------------------------------|
-----------14-13-12(la dejas sonando)----------------------------|
-----------------------------------------------------------------|
-----------------------------------------------------------------|
-----------------------------------------------------------------|


ya no keria...
---------------------------------------------------------------------------------|
---------------------------------------------------------------------------------|
33333------------6622------------------------------------------------------------|
333333333335555556622------------------------------------------------------------|
1111133333355555544--------------------------------------------------------------|
-----111111333333----------------------------------------------------------------|

si se fijan falta una parte pero aki esta la mayoria
kejas a kalel_kryptonite@hotmail.com
pds si me van a escribir k no se tokar...
ya lo se.
Tap to rate this tab
 
# A B C D E F G H I J K L M N O P Q R S T U V W X Y Z