Song name
# A B C D E F G H I J K L M N O P Q R S T U V W X Y Z

Panda - Promesasdecepciones tab

Panda 
Promesas/Decepciones
Para ti Con Desprecio 
Transcrita por:Wichopunk182

Afinacion Estandar

Intro Bass
(chequen el ritmo)
g|-------------|
d|-22222222222-|
a|-44444444444-|
E|-------------|

"Que equivocados estamos..."
g|--------------------------|
d|-22222222222-222222222222-|
a|-44444444444-000000000000-|
E|--------------------------|

entra la guitarra 0:13
e|---------------------|
b|---------------------|
g|---------------------|
d|-----------4444-4444-|
a|-4444-4444-2222-2222-|
E|-2222-2222-----------|x1
pm ...  ...  ...  ...  

Verso
"me prometiste..."
e|------------------------------|
b|----5--5---5--5---5--5---5--5-|
g|------------------------------|
d|------------------------------|
a|-444-44-444-44-000-00-000-00--|
E|------------------------------|x1
   ... .. ... .. ... .. ... ..

"un castigo has de merecer"
e|---------------------|
b|---------------------|
g|---------------------|
d|-----------4444-4444-|
a|-4444-4444-2222-2222-|
E|-2222-2222-----------|x1
   ...  ...  ...  ...  

Pre-coro
"decepcion, es algo que no..."
e|-----------------------|
b|-----------------------|
g|-----------------------|
d|-----------------------|
a|-7777777777-9999999999-|
E|-5555555555-7777777777-|x3

   "retiro lo dicho"
e|---------------------|
b|---------------------|
g|---------------------|
d|---------------------|
a|-7777-7777-9999-9999-|
E|-5555-5555-7777-7777-|x1
   ...  ...  ...  ... 

Coro
e|--------------------------------|
b|--------------------------------|
g|--------------------------------|
d|-666666-222222-444444-7777-9999-|
a|-444444-222222-444444-7777-9999-|
E|-444444-000000-222222-5555-7777-|x2

despues del coro
1:22
Bass
g|--------------------------|
d|-22222222222-222222222222-|
a|-44444444444-000000000000-|
E|--------------------------|x2

Guitarra 
e|----------------|
b|----------------|
g|-6--6/2--6--6/9-|
d|-x--x/x--x--x/x-|
a|-4--4/0--4--4/7-|
E|----------------|x1

Verso
1:35
"Agradece y pide..."
e|----------------------------------------------------------|
b|----5--5---5--5---5--5---5--5-----------------------------|
g|--------------------------------6--6---6--6---4--4---4--4-|
d|-----------------------------444-44-444-44----------------|
a|-444-44-444-44-000-00-000-00---------------222-22-222-22--|
E|----------------------------------------------------------|x1
   ... .. ... .. ... .. ... .. ... .. ... .. ... .. ... ..

"Destrozaste mi sueño..."
e|------------------------------|
b|----5--5---5--5---5--5---5--5-|
g|------------------------------|
d|------------------------------|
a|-444-44-444-44-000-00-000-00--|
E|------------------------------|x1
   ... .. ... .. ... .. ... ..

1:54
e|---------------------|
b|---------------------|
g|---------------------|
d|-----------4444-4444-|
a|-4444-4444-2222-2222-|
E|-2222-2222-----------|x1
pm ...  ...  ...  ...  

=Pre-coro, igual=
=coro=

Interlude
Bass
2:54
g|--------------------------|
d|-22222222222-222222222222-|
a|-44444444444-000000000000-|
E|--------------------------|x2

Entra la guitarra
3:06
e|--------------------------------|
b|--------------------------------|
g|-6666664222222/46666668222222/4-|
d|-xxxxxxxxxxxxx/xxxxxxxxxxxxxx/x-|
a|-4444442000000/24444446000000/2-|
E|--------------------------------|x2

3:32
dejenlo sonar
e|---|
b|---|
g|-6-|
d|-6-|
a|-4-|
E|-4-|

3:44
Sin guitarra

4:06"retiro lo dicho"
e|---------------------|
b|---------------------|
g|---------------------|
d|---------------------|
a|-7777-7777-9999-9999-|
E|-5555-5555-7777-7777-|x1
   ...  ...  ...  ... 

=Coro=

termina en: 
e|---|
b|---|
g|-8-|
d|-8-|
a|-6-|
E|-6-|

Faltan algunas cosas, pero aki esta lo principal
hay lo demas si alguien lo saka mi e-mail es: pndblink182@hotmail.com
para ke me lo mande.
Sobres, hay se ven.
Tap to rate this tab
 
# A B C D E F G H I J K L M N O P Q R S T U V W X Y Z